  0
SECTION
  2
HEADER
  9
$ACADVER
  1
AC1009
  9
$DWGCODEPAGE
  3
ansi_1252
  9
$INSBASE
 10
0.0
 20
0.0
 30
0.0
  9
$EXTMIN
 10
3.795967947744642
 20
-190.3838245865492
 30
0.0
  9
$EXTMAX
 10
803.8872196702948
 20
209.6161754134508
 30
0.0
  9
$LIMMIN
 10
0.0
 20
0.0
  9
$LIMMAX
 10
420.0
 20
297.0
  9
$ORTHOMODE
 70
     0
  9
$REGENMODE
 70
     1
  9
$FILLMODE
 70
     1
  9
$QTEXTMODE
 70
     0
  9
$MIRRTEXT
 70
     0
  9
$DRAGMODE
 70
     2
  9
$LTSCALE
 40
1.0
  9
$OSMODE
 70
    37
  9
$ATTMODE
 70
     1
  9
$TEXTSIZE
 40
2.5
  9
$TRACEWID
 40
1.0
  9
$TEXTSTYLE
  7
STANDARD
  9
$CLAYER
  8
0
  9
$CELTYPE
  6
BYLAYER
  9
$CECOLOR
 62
   256
  9
$DIMSCALE
 40
1.0
  9
$DIMASZ
 40
30.0
  9
$DIMEXO
 40
0.625
  9
$DIMDLI
 40
3.75
  9
$DIMRND
 40
0.0
  9
$DIMDLE
 40
0.0
  9
$DIMEXE
 40
1.25
  9
$DIMTP
 40
0.0
  9
$DIMTM
 40
0.0
  9
$DIMTXT
 40
30.0
  9
$DIMCEN
 40
2.5
  9
$DIMTSZ
 40
0.0
  9
$DIMTOL
 70
     0
  9
$DIMLIM
 70
     0
  9
$DIMTIH
 70
     0
  9
$DIMTOH
 70
     0
  9
$DIMSE1
 70
     0
  9
$DIMSE2
 70
     0
  9
$DIMTAD
 70
     1
  9
$DIMZIN
 70
     8
  9
$DIMBLK
  1

  9
$DIMASO
 70
     1
  9
$DIMSHO
 70
     1
  9
$DIMPOST
  1

  9
$DIMAPOST
  1

  9
$DIMALT
 70
     0
  9
$DIMALTD
 70
     3
  9
$DIMALTF
 40
0.03937007874016
  9
$DIMLFAC
 40
1.0
  9
$DIMTOFL
 70
     1
  9
$DIMTVP
 40
0.0
  9
$DIMTIX
 70
     0
  9
$DIMSOXD
 70
     0
  9
$DIMSAH
 70
     0
  9
$DIMBLK1
  1

  9
$DIMBLK2
  1

  9
$DIMSTYLE
  2
ISO-25
  9
$DIMCLRD
 70
     0
  9
$DIMCLRE
 70
     0
  9
$DIMCLRT
 70
     0
  9
$DIMTFAC
 40
1.0
  9
$DIMGAP
 40
0.625
  9
$LUNITS
 70
     2
  9
$LUPREC
 70
     4
  9
$SKETCHINC
 40
1.0
  9
$FILLETRAD
 40
0.0
  9
$AUNITS
 70
     0
  9
$AUPREC
 70
     0
  9
$MENU
  1
.
  9
$ELEVATION
 40
0.0
  9
$PELEVATION
 40
0.0
  9
$THICKNESS
 40
0.0
  9
$LIMCHECK
 70
     0
  9
$CHAMFERA
 40
0.0
  9
$CHAMFERB
 40
0.0
  9
$SKPOLY
 70
     0
  9
$TDCREATE
 40
2453353.758792488
  9
$TDUPDATE
 40
2459638.110662222
  9
$TDINDWG
 40
2440852.080755556
  9
$TDUSRTIMER
 40
2440852.080755556
  9
$USRTIMER
 70
     1
  9
$ANGBASE
 50
0.0
  9
$ANGDIR
 70
     0
  9
$PDMODE
 70
     0
  9
$PDSIZE
 40
0.0
  9
$PLINEWID
 40
9.0
  9
$COORDS
 70
     1
  9
$SPLFRAME
 70
     0
  9
$SPLINETYPE
 70
     6
  9
$SPLINESEGS
 70
     8
  9
$ATTDIA
 70
     0
  9
$ATTREQ
 70
     1
  9
$HANDLING
 70
     1
  9
$HANDSEED
  5
1C2
  9
$SURFTAB1
 70
     6
  9
$SURFTAB2
 70
     6
  9
$SURFTYPE
 70
     6
  9
$SURFU
 70
     6
  9
$SURFV
 70
     6
  9
$UCSNAME
  2

  9
$UCSORG
 10
0.0
 20
0.0
 30
0.0
  9
$UCSXDIR
 10
1.0
 20
0.0
 30
0.0
  9
$UCSYDIR
 10
0.0
 20
1.0
 30
0.0
  9
$PUCSNAME
  2

  9
$PUCSORG
 10
0.0
 20
0.0
 30
0.0
  9
$PUCSXDIR
 10
1.0
 20
0.0
 30
0.0
  9
$PUCSYDIR
 10
0.0
 20
1.0
 30
0.0
  9
$USERI1
 70
     0
  9
$USERI2
 70
     0
  9
$USERI3
 70
     0
  9
$USERI4
 70
     0
  9
$USERI5
 70
     0
  9
$USERR1
 40
0.0
  9
$USERR2
 40
0.0
  9
$USERR3
 40
0.0
  9
$USERR4
 40
0.0
  9
$USERR5
 40
0.0
  9
$WORLDVIEW
 70
     1
  9
$SHADEDGE
 70
     3
  9
$SHADEDIF
 70
    70
  9
$TILEMODE
 70
     1
  9
$MAXACTVP
 70
    64
  9
$PLIMCHECK
 70
     0
  9
$PEXTMIN
 10
1.000000000000000E+20
 20
1.000000000000000E+20
 30
1.000000000000000E+20
  9
$PEXTMAX
 10
-1.000000000000000E+20
 20
-1.000000000000000E+20
 30
-1.000000000000000E+20
  9
$PLIMMIN
 10
0.0
 20
0.0
  9
$PLIMMAX
 10
420.0
 20
297.0
  9
$UNITMODE
 70
     0
  9
$VISRETAIN
 70
     1
  9
$PLINEGEN
 70
     0
  9
$PSLTSCALE
 70
     1
  0
ENDSEC
  0
SECTION
  2
TABLES
  0
TABLE
  2
VPORT
 70
     1
  0
VPORT
  2
*ACTIVE
 70
     0
 10
0.0
 20
0.0
 11
1.0
 21
1.0
 12
892.9535062972605
 22
-9.781634476592039
 13
0.0
 23
0.0
 14
10.0
 24
10.0
 15
10.0
 25
10.0
 16
0.0
 26
0.0
 36
1.0
 17
0.0
 27
0.0
 37
0.0
 40
1254.391706222773
 41
1.664827586206897
 42
50.0
 43
0.0
 44
0.0
 50
0.0
 51
0.0
 71
    16
 72
  1000
 73
     1
 74
     3
 75
     0
 76
     0
 77
     0
 78
     0
  0
ENDTAB
  0
TABLE
  2
LTYPE
 70
     1
  0
LTYPE
  2
CONTINUOUS
 70
     0
  3
Solid line
 72
    65
 73
     0
 40
0.0
  0
ENDTAB
  0
TABLE
  2
LAYER
 70
     2
  0
LAYER
  2
0
 70
     0
 62
     7
  6
CONTINUOUS
  0
LAYER
  2
DEFPOINTS
 70
     0
 62
     7
  6
CONTINUOUS
  0
ENDTAB
  0
TABLE
  2
STYLE
 70
     1
  0
STYLE
  2
STANDARD
 70
     0
 40
0.0
 41
1.0
 50
0.0
 71
     0
 42
2.5
  3
txt
  4

  0
ENDTAB
  0
TABLE
  2
VIEW
 70
     0
  0
ENDTAB
  0
TABLE
  2
UCS
 70
     0
  0
ENDTAB
  0
TABLE
  2
APPID
 70
     1
  0
APPID
  2
ACAD
 70
     0
  0
ENDTAB
  0
TABLE
  2
DIMSTYLE
 70
     2
  0
DIMSTYLE
  2
STANDARD
 70
     0
  3

  4

  5

  6

  7

 40
1.0
 41
0.18
 42
0.0625
 43
0.38
 44
0.18
 45
0.0
 46
0.0
 47
0.0
 48
0.0
140
0.18
141
0.09
142
0.0
143
25.4
144
1.0
145
0.0
146
1.0
147
0.09
 71
     0
 72
     0
 73
     1
 74
     1
 75
     0
 76
     0
 77
     0
 78
     0
170
     0
171
     2
172
     0
173
     0
174
     0
175
     0
176
     0
177
     0
178
     0
  0
DIMSTYLE
  2
ISO-25
 70
     0
  3

  4

  5

  6

  7

 40
1.0
 41
2.5
 42
0.625
 43
3.75
 44
1.25
 45
0.0
 46
0.0
 47
0.0
 48
0.0
140
2.5
141
2.5
142
0.0
143
0.03937007874016
144
1.0
145
0.0
146
1.0
147
0.625
 71
     0
 72
     0
 73
     0
 74
     0
 75
     0
 76
     0
 77
     1
 78
     8
170
     0
171
     3
172
     1
173
     0
174
     0
175
     0
176
     0
177
     0
178
     0
  0
ENDTAB
  0
ENDSEC
  0
SECTION
  2
BLOCKS
  0
BLOCK
  8
0
  2
$MODEL_SPACE
 70
     0
 10
0.0
 20
0.0
 30
0.0
  3
$MODEL_SPACE
  1

  0
ENDBLK
  5
21
  8
0
  0
BLOCK
 67
     1
  8
0
  2
$PAPER_SPACE
 70
     0
 10
0.0
 20
0.0
 30
0.0
  3
$PAPER_SPACE
  1

  0
ENDBLK
  5
76
 67
     1
  8
0
  0
BLOCK
  8
0
  2
WEICHE164
 70
     0
 10
0.0
 20
0.0
 30
0.0
  3
WEICHE164
  1

  0
POLYLINE
  5
33
  8
0
 66
     1
 10
0.0
 20
0.0
 30
0.0
 40
9.0
 41
9.0
  0
VERTEX
  5
1A7
  8
0
 10
0.0
 20
0.0
 30
0.0
  0
VERTEX
  5
1A8
  8
0
 10
164.0
 20
0.0
 30
0.0
  0
SEQEND
  5
1A6
  8
0
  0
POLYLINE
  5
34
  8
0
 66
     1
 10
0.0
 20
0.0
 30
0.0
 40
9.0
 41
9.0
  0
VERTEX
  5
1AA
  8
0
 10
93.10897725477864
 20
-0.0000000000000018
 30
0.0
  0
VERTEX
  5
1AB
  8
0
 10
164.0
 20
12.5
 30
0.0
  0
SEQEND
  5
1A9
  8
0
  0
ENDBLK
  5
188
  8
0
  0
BLOCK
  8
0
  2
*D2
 70
     1
 10
0.0
 20
0.0
 30
0.0
  3
*D2
  1

  0
POINT
  5
126
  8
DEFPOINTS
  6
BYBLOCK
 62
     0
 10
-800.0
 20
400.0
 30
0.0
  0
POINT
  5
5F
  8
DEFPOINTS
  6
BYBLOCK
 62
     0
 10
0.0
 20
400.0
 30
0.0
  0
LINE
  5
60
  8
0
  6
BYBLOCK
 62
     0
 10
-800.0
 20
400.625
 30
0.0
 11
-800.0
 21
448.8572409686265
 31
0.0
  0
LINE
  5
61
  8
0
  6
BYBLOCK
 62
     0
 10
0.0
 20
400.625
 30
0.0
 11
0.0
 21
448.8572409686265
 31
0.0
  0
LINE
  5
62
  8
0
  6
BYBLOCK
 62
     0
 10
-770.0
 20
447.6072409686265
 30
0.0
 11
-30.0
 21
447.6072409686265
 31
0.0
  0
SOLID
  5
63
  8
0
  6
BYBLOCK
 62
     0
 10
-800.0
 20
447.6072409686265
 30
0.0
 11
-770.0
 21
442.6072409686254
 31
0.0
 12
-770.0
 22
452.6072409686275
 32
0.0
 13
-770.0
 23
452.6072409686275
 33
0.0
  0
SOLID
  5
64
  8
0
  6
BYBLOCK
 62
     0
 10
0.0
 20
447.6072409686265
 30
0.0
 11
-30.0
 21
442.6072409686254
 31
0.0
 12
-30.0
 22
452.6072409686275
 32
0.0
 13
-30.0
 23
452.6072409686275
 33
0.0
  0
TEXT
  5
65
  8
0
  6
BYBLOCK
 62
     0
 10
-434.95
 20
448.2322409686265
 30
0.0
 40
30.0
  1
800
  0
ENDBLK
  5
18A
  8
0
  0
BLOCK
  8
0
  2
*D3
 70
     1
 10
0.0
 20
0.0
 30
0.0
  3
*D3
  1

  0
POINT
  5
69
  8
DEFPOINTS
  6
BYBLOCK
 62
     0
 10
-800.0
 20
447.6072409686265
 30
0.0
  0
POINT
  5
6A
  8
DEFPOINTS
  6
BYBLOCK
 62
     0
 10
0.0
 20
447.6072409686265
 30
0.0
  0
LINE
  5
127
  8
0
  6
BYBLOCK
 62
     0
 10
-800.0
 20
448.2322409686265
 30
0.0
 11
-800.0
 21
496.4644819372529
 31
0.0
  0
LINE
  5
128
  8
0
  6
BYBLOCK
 62
     0
 10
0.0
 20
448.2322409686265
 30
0.0
 11
0.0
 21
496.4644819372529
 31
0.0
  0
LINE
  5
6D
  8
0
  6
BYBLOCK
 62
     0
 10
-770.0
 20
495.2144819372529
 30
0.0
 11
-30.0
 21
495.2144819372529
 31
0.0
  0
SOLID
  5
6E
  8
0
  6
BYBLOCK
 62
     0
 10
-800.0
 20
495.2144819372529
 30
0.0
 11
-770.0
 21
490.2144819372519
 31
0.0
 12
-770.0
 22
500.2144819372539
 32
0.0
 13
-770.0
 23
500.2144819372539
 33
0.0
  0
SOLID
  5
6F
  8
0
  6
BYBLOCK
 62
     0
 10
0.0
 20
495.2144819372529
 30
0.0
 11
-30.0
 21
490.2144819372519
 31
0.0
 12
-30.0
 22
500.2144819372539
 32
0.0
 13
-30.0
 23
500.2144819372539
 33
0.0
  0
TEXT
  5
70
  8
0
  6
BYBLOCK
 62
     0
 10
-434.95
 20
495.8394819372529
 30
0.0
 40
30.0
  1
800
  0
ENDBLK
  5
18C
  8
0
  0
BLOCK
  8
0
  2
*D4
 70
     1
 10
0.0
 20
0.0
 30
0.0
  3
*D4
  1

  0
POINT
  5
129
  8
DEFPOINTS
  6
BYBLOCK
 62
     0
 10
-769.602638915888
 20
320.0
 30
0.0
  0
POINT
  5
12A
  8
DEFPOINTS
  6
BYBLOCK
 62
     0
 10
-164.0
 20
320.0
 30
0.0
  0
LINE
  5
77
  8
0
  6
BYBLOCK
 62
     0
 10
-769.602638915888
 20
320.625
 30
0.0
 11
-769.602638915888
 21
343.5124192613068
 31
0.0
  0
LINE
  5
78
  8
0
  6
BYBLOCK
 62
     0
 10
-164.0
 20
320.625
 30
0.0
 11
-164.0
 21
343.5124192613068
 31
0.0
  0
LINE
  5
79
  8
0
  6
BYBLOCK
 62
     0
 10
-739.602638915888
 20
342.2624192613068
 30
0.0
 11
-194.0
 21
342.2624192613068
 31
0.0
  0
SOLID
  5
7A
  8
0
  6
BYBLOCK
 62
     0
 10
-769.602638915888
 20
342.2624192613068
 30
0.0
 11
-739.602638915888
 21
337.2624192613058
 31
0.0
 12
-739.602638915888
 22
347.2624192613079
 32
0.0
 13
-739.602638915888
 23
347.2624192613079
 33
0.0
  0
SOLID
  5
7B
  8
0
  6
BYBLOCK
 62
     0
 10
-164.0
 20
342.2624192613068
 30
0.0
 11
-194.0
 21
337.2624192613058
 31
0.0
 12
-194.0
 22
347.2624192613079
 32
0.0
 13
-194.0
 23
347.2624192613079
 33
0.0
  0
TEXT
  5
7C
  8
0
  6
BYBLOCK
 62
     0
 10
-504.301319457944
 20
342.8874192613068
 30
0.0
 40
30.0
  1
606
  0
ENDBLK
  5
18E
  8
0
  0
BLOCK
  8
0
  2
*D5
 70
     1
 10
0.0
 20
0.0
 30
0.0
  3
*D5
  1

  0
POINT
  5
81
  8
DEFPOINTS
  6
BYBLOCK
 62
     0
 10
-772.1546400120241
 20
291.33179577528
 30
0.0
  0
POINT
  5
82
  8
DEFPOINTS
  6
BYBLOCK
 62
     0
 10
-327.6790737148392
 20
291.33179577528
 30
0.0
  0
LINE
  5
83
  8
0
  6
BYBLOCK
 62
     0
 10
-772.1546400120241
 20
290.70679577528
 30
0.0
 11
-772.1546400120241
 21
239.3424169158705
 31
0.0
  0
LINE
  5
84
  8
0
  6
BYBLOCK
 62
     0
 10
-327.6790737148392
 20
290.70679577528
 30
0.0
 11
-327.6790737148392
 21
239.3424169158705
 31
0.0
  0
LINE
  5
85
  8
0
  6
BYBLOCK
 62
     0
 10
-742.1546400120241
 20
240.5924169158705
 30
0.0
 11
-357.6790737148392
 21
240.5924169158705
 31
0.0
  0
SOLID
  5
86
  8
0
  6
BYBLOCK
 62
     0
 10
-772.1546400120241
 20
240.5924169158705
 30
0.0
 11
-742.1546400120241
 21
235.5924169158695
 31
0.0
 12
-742.1546400120241
 22
245.5924169158715
 32
0.0
 13
-742.1546400120241
 23
245.5924169158715
 33
0.0
  0
SOLID
  5
87
  8
0
  6
BYBLOCK
 62
     0
 10
-327.6790737148392
 20
240.5924169158705
 30
0.0
 11
-357.6790737148392
 21
235.5924169158695
 31
0.0
 12
-357.6790737148392
 22
245.5924169158715
 32
0.0
 13
-357.6790737148392
 23
245.5924169158715
 33
0.0
  0
TEXT
  5
88
  8
0
  6
BYBLOCK
 62
     0
 10
-589.9668568634315
 20
241.2174169158705
 30
0.0
 40
30.0
  1
444
  0
ENDBLK
  5
190
  8
0
  0
BLOCK
  8
0
  2
*D6
 70
     1
 10
0.0
 20
0.0
 30
0.0
  3
*D6
  1

  0
POINT
  5
8D
  8
DEFPOINTS
  6
BYBLOCK
 62
     0
 10
164.0000000000011
 20
320.0
 30
0.0
  0
POINT
  5
8E
  8
DEFPOINTS
  6
BYBLOCK
 62
     0
 10
630.41286924822
 20
93.54661037941867
 30
0.0
  0
LINE
  5
8F
  8
0
  6
BYBLOCK
 62
     0
 10
164.2729771885221
 20
320.5622352306172
 30
0.0
 11
193.4524207212708
 21
380.6614371192639
 31
0.0
  0
LINE
  5
90
  8
0
  6
BYBLOCK
 62
     0
 10
630.6858464367409
 20
94.1088456100359
 30
0.0
 11
659.8652899694895
 21
154.2080474986822
 31
0.0
  0
LINE
  5
91
  8
0
  6
BYBLOCK
 62
     0
 10
219.8937574138549
 20
366.434061609023
 30
0.0
 11
632.3320445228214
 21
166.1864820864543
 31
0.0
  0
SOLID
  5
12B
  8
0
  6
BYBLOCK
 62
     0
 10
192.9064663442289
 20
379.5369666580294
 30
0.0
 11
217.7099399056868
 21
361.9361797640844
 31
0.0
 12
222.0775749220231
 22
370.9319434539615
 32
0.0
 13
222.0775749220231
 23
370.9319434539615
 33
0.0
  0
SOLID
  5
12C
  8
0
  6
BYBLOCK
 62
     0
 10
659.3193355924475
 20
153.0835770374478
 30
0.0
 11
630.1482270146532
 21
161.6886002415157
 31
0.0
 12
634.5158620309896
 22
170.6843639313929
 32
0.0
 13
634.5158620309896
 23
170.6843639313929
 33
0.0
  0
TEXT
  5
94
  8
0
  6
BYBLOCK
 62
     0
 10
394.8107476053966
 20
282.2029059856934
 30
0.0
 40
30.0
  1
518
 50
334.1024385822263
 41
0.9999999999999999
  0
ENDBLK
  5
192
  8
0
  0
BLOCK
  8
0
  2
*D7
 70
     1
 10
0.0
 20
0.0
 30
0.0
  3
*D7
  1

  0
POINT
  5
E4
  8
DEFPOINTS
  6
BYBLOCK
 62
     0
 10
-772.1546400120241
 20
291.33179577528
 30
0.0
  0
POINT
  5
E5
  8
DEFPOINTS
  6
BYBLOCK
 62
     0
 10
-327.6790737148392
 20
291.33179577528
 30
0.0
  0
LINE
  5
E6
  8
0
  6
BYBLOCK
 62
     0
 10
-772.1546400120241
 20
290.70679577528
 30
0.0
 11
-772.1546400120241
 21
239.3424169158705
 31
0.0
  0
LINE
  5
E7
  8
0
  6
BYBLOCK
 62
     0
 10
-327.6790737148392
 20
290.70679577528
 30
0.0
 11
-327.6790737148392
 21
239.3424169158705
 31
0.0
  0
LINE
  5
E8
  8
0
  6
BYBLOCK
 62
     0
 10
-742.1546400120241
 20
240.5924169158705
 30
0.0
 11
-357.6790737148392
 21
240.5924169158705
 31
0.0
  0
SOLID
  5
E9
  8
0
  6
BYBLOCK
 62
     0
 10
-772.1546400120241
 20
240.5924169158705
 30
0.0
 11
-742.1546400120241
 21
235.5924169158695
 31
0.0
 12
-742.1546400120241
 22
245.5924169158715
 32
0.0
 13
-742.1546400120241
 23
245.5924169158715
 33
0.0
  0
SOLID
  5
EA
  8
0
  6
BYBLOCK
 62
     0
 10
-327.6790737148392
 20
240.5924169158705
 30
0.0
 11
-357.6790737148392
 21
235.5924169158695
 31
0.0
 12
-357.6790737148392
 22
245.5924169158715
 32
0.0
 13
-357.6790737148392
 23
245.5924169158715
 33
0.0
  0
TEXT
  5
EB
  8
0
  6
BYBLOCK
 62
     0
 10
-589.9668568634315
 20
241.2174169158705
 30
0.0
 40
30.0
  1
444
  0
ENDBLK
  5
194
  8
0
  0
BLOCK
  8
0
  2
*D8
 70
     1
 10
0.0
 20
0.0
 30
0.0
  3
*D8
  1

  0
POINT
  5
EF
  8
DEFPOINTS
  6
BYBLOCK
 62
     0
 10
-769.602638915888
 20
320.0
 30
0.0
  0
POINT
  5
F0
  8
DEFPOINTS
  6
BYBLOCK
 62
     0
 10
-164.0
 20
320.0
 30
0.0
  0
LINE
  5
F1
  8
0
  6
BYBLOCK
 62
     0
 10
-769.602638915888
 20
320.625
 30
0.0
 11
-769.602638915888
 21
343.5124192613068
 31
0.0
  0
LINE
  5
F2
  8
0
  6
BYBLOCK
 62
     0
 10
-164.0
 20
320.625
 30
0.0
 11
-164.0
 21
343.5124192613068
 31
0.0
  0
LINE
  5
F3
  8
0
  6
BYBLOCK
 62
     0
 10
-739.602638915888
 20
342.2624192613068
 30
0.0
 11
-194.0
 21
342.2624192613068
 31
0.0
  0
SOLID
  5
F4
  8
0
  6
BYBLOCK
 62
     0
 10
-769.602638915888
 20
342.2624192613068
 30
0.0
 11
-739.602638915888
 21
337.2624192613058
 31
0.0
 12
-739.602638915888
 22
347.2624192613079
 32
0.0
 13
-739.602638915888
 23
347.2624192613079
 33
0.0
  0
SOLID
  5
F5
  8
0
  6
BYBLOCK
 62
     0
 10
-164.0
 20
342.2624192613068
 30
0.0
 11
-194.0
 21
337.2624192613058
 31
0.0
 12
-194.0
 22
347.2624192613079
 32
0.0
 13
-194.0
 23
347.2624192613079
 33
0.0
  0
TEXT
  5
F6
  8
0
  6
BYBLOCK
 62
     0
 10
-504.301319457944
 20
342.8874192613068
 30
0.0
 40
30.0
  1
606
  0
ENDBLK
  5
196
  8
0
  0
BLOCK
  8
0
  2
*D9
 70
     1
 10
0.0
 20
0.0
 30
0.0
  3
*D9
  1

  0
POINT
  5
FA
  8
DEFPOINTS
  6
BYBLOCK
 62
     0
 10
-800.0
 20
447.6072409686265
 30
0.0
  0
POINT
  5
FB
  8
DEFPOINTS
  6
BYBLOCK
 62
     0
 10
0.0
 20
447.6072409686265
 30
0.0
  0
LINE
  5
FC
  8
0
  6
BYBLOCK
 62
     0
 10
-800.0
 20
448.2322409686265
 30
0.0
 11
-800.0
 21
496.4644819372529
 31
0.0
  0
LINE
  5
FD
  8
0
  6
BYBLOCK
 62
     0
 10
0.0
 20
448.2322409686265
 30
0.0
 11
0.0
 21
496.4644819372529
 31
0.0
  0
LINE
  5
FE
  8
0
  6
BYBLOCK
 62
     0
 10
-770.0
 20
495.2144819372529
 30
0.0
 11
-30.0
 21
495.2144819372529
 31
0.0
  0
SOLID
  5
FF
  8
0
  6
BYBLOCK
 62
     0
 10
-800.0
 20
495.2144819372529
 30
0.0
 11
-770.0
 21
490.2144819372519
 31
0.0
 12
-770.0
 22
500.2144819372539
 32
0.0
 13
-770.0
 23
500.2144819372539
 33
0.0
  0
SOLID
  5
100
  8
0
  6
BYBLOCK
 62
     0
 10
0.0
 20
495.2144819372529
 30
0.0
 11
-30.0
 21
490.2144819372519
 31
0.0
 12
-30.0
 22
500.2144819372539
 32
0.0
 13
-30.0
 23
500.2144819372539
 33
0.0
  0
TEXT
  5
101
  8
0
  6
BYBLOCK
 62
     0
 10
-434.95
 20
495.8394819372529
 30
0.0
 40
30.0
  1
800
  0
ENDBLK
  5
198
  8
0
  0
BLOCK
  8
0
  2
*D10
 70
     1
 10
0.0
 20
0.0
 30
0.0
  3
*D10
  1

  0
POINT
  5
105
  8
DEFPOINTS
  6
BYBLOCK
 62
     0
 10
164.0000000000011
 20
320.0
 30
0.0
  0
POINT
  5
106
  8
DEFPOINTS
  6
BYBLOCK
 62
     0
 10
630.41286924822
 20
93.54661037941867
 30
0.0
  0
LINE
  5
107
  8
0
  6
BYBLOCK
 62
     0
 10
164.2729771885221
 20
320.5622352306172
 30
0.0
 11
193.4524207212708
 21
380.6614371192638
 31
0.0
  0
LINE
  5
108
  8
0
  6
BYBLOCK
 62
     0
 10
630.6858464367409
 20
94.1088456100359
 30
0.0
 11
659.8652899694895
 21
154.2080474986822
 31
0.0
  0
LINE
  5
109
  8
0
  6
BYBLOCK
 62
     0
 10
219.8937574138549
 20
366.4340616090229
 30
0.0
 11
632.3320445228214
 21
166.1864820864543
 31
0.0
  0
SOLID
  5
10A
  8
0
  6
BYBLOCK
 62
     0
 10
192.9064663442288
 20
379.5369666580294
 30
0.0
 11
217.7099399056868
 21
361.9361797640844
 31
0.0
 12
222.0775749220231
 22
370.9319434539615
 32
0.0
 13
222.0775749220231
 23
370.9319434539615
 33
0.0
  0
SOLID
  5
10B
  8
0
  6
BYBLOCK
 62
     0
 10
659.3193355924475
 20
153.0835770374478
 30
0.0
 11
630.1482270146532
 21
161.6886002415157
 31
0.0
 12
634.5158620309896
 22
170.6843639313929
 32
0.0
 13
634.5158620309896
 23
170.6843639313929
 33
0.0
  0
TEXT
  5
10C
  8
0
  6
BYBLOCK
 62
     0
 10
394.8107476053966
 20
282.2029059856934
 30
0.0
 40
30.0
  1
518
 50
334.1024385822263
 41
0.9999999999999999
  0
ENDBLK
  5
19A
  8
0
  0
BLOCK
  8
0
  2
NRE-249
 70
     0
 10
0.0
 20
0.0
 30
0.0
  3
NRE-249
  1

  0
POLYLINE
  5
174
  8
0
 66
     1
 10
0.0
 20
0.0
 30
0.0
 70
     1
  0
VERTEX
  5
1AD
  8
0
 10
0.0
 20
-200.0
 30
0.0
  0
VERTEX
  5
1AE
  8
0
 10
799.9999999999999
 20
-200.0
 30
0.0
  0
VERTEX
  5
1AF
  8
0
 10
799.9999999999999
 20
200.0
 30
0.0
  0
VERTEX
  5
1B0
  8
0
 10
0.0
 20
200.0
 30
0.0
  0
SEQEND
  5
1AC
  8
0
  0
INSERT
  5
175
  8
0
  2
WEICHE164
 10
799.9999999999999
 20
120.0
 30
0.0
 50
180.0
  0
POLYLINE
  5
176
  8
0
 66
     1
 10
0.0
 20
0.0
 30
0.0
 40
9.0
 41
9.0
  0
VERTEX
  5
1B2
  8
0
 10
30.39736108411194
 20
120.0
 30
0.0
  0
VERTEX
  5
1B3
  8
0
 10
635.9999999999999
 20
120.0
 30
0.0
  0
SEQEND
  5
1B1
  8
0
  0
POLYLINE
  5
177
  8
0
 66
     1
 10
0.0
 20
0.0
 30
0.0
 40
9.0
 41
9.0
  0
VERTEX
  5
1B5
  8
0
 10
30.39736108411194
 20
127.2689090161556
 30
0.0
  0
VERTEX
  5
1B6
  8
0
 10
30.39736108411194
 20
112.7310909838444
 30
0.0
  0
SEQEND
  5
1B4
  8
0
  0
INSERT
  5
178
  8
0
  2
WEICHE164
 10
635.9999999999999
 20
107.5
 30
0.0
 41
-1.0
 50
9.999999999998613
  0
POLYLINE
  5
179
  8
0
 66
     1
 10
0.0
 20
0.0
 30
0.0
 40
9.0
 41
9.0
  0
VERTEX
  5
1B8
  8
0
 10
27.84535998797583
 20
98.60070479143558
 30
0.0
  0
VERTEX
  5
1B9
  8
0
 10
27.84535998797583
 20
84.0628867591244
 30
0.0
  0
SEQEND
  5
1B7
  8
0
  0
POLYLINE
  5
17A
  8
0
 66
     1
 10
0.0
 20
0.0
 30
0.0
 40
9.0
 41
9.0
  0
VERTEX
  5
1BB
  8
0
 10
27.84535998797583
 20
91.33179577527999
 30
0.0
  0
VERTEX
  5
1BC
  8
0
 10
472.3209262851608
 20
91.33179577527999
 30
0.0
  0
SEQEND
  5
1BA
  8
0
  0
POLYLINE
  5
17B
  8
0
 66
     1
 10
0.0
 20
0.0
 30
0.0
 40
9.0
 41
9.0
  0
VERTEX
  5
1BE
  8
0
 10
0.0
 20
-0.0000000000000107
 30
0.0
 42
0.0506329298800402
  0
VERTEX
  5
1BF
  8
0
 10
238.1592487152825
 20
29.06967424964587
 30
0.0
 42
0.0033184708409242
  0
VERTEX
  5
1C0
  8
0
 10
352.0031531909395
 20
53.97948269177179
 30
0.0
 42
-0.0107287244089762
  0
VERTEX
  5
1C1
  8
0
 10
474.4915285059971
 20
79.0216988626273
 30
0.0
 42
131.7086428076057
  0
SEQEND
  5
1BD
  8
0
  0
TEXT
  5
17C
  8
0
 62
     2
 10
41.06211973510017
 20
158.9822306128763
 30
0.0
 40
25.0
  1
DL02/22
  0
TEXT
  5
17D
  8
0
 10
231.8537701822584
 20
-97.16273738534066
 30
0.0
 40
60.0
  1
NRE-249
  0
TEXT
  5
17E
  8
0
 10
344.555671855803
 20
-155.9850175084859
 30
0.0
 40
40.0
  1
MiGru
  0
TEXT
  5
17F
  8
0
 10
229.2180219598802
 20
-186.7157683172939
 30
0.0
 40
20.0
  1
Carl-Spaeter-Strasse
  0
TEXT
  5
180
  8
0
 10
385.4230697396856
 20
144.0491645913722
 30
0.0
 40
40.0
  1
800
  0
ENDBLK
  5
19C
  8
0
  0
ENDSEC
  0
SECTION
  2
ENTITIES
  0
INSERT
  5
183
  8
0
  2
NRE-249
 10
3.887219670294995
 20
9.616175413450844
 30
0.0
  0
ENDSEC
  0
EOF
