  0
SECTION
  2
HEADER
  9
$ACADVER
  1
AC1009
  9
$DWGCODEPAGE
  3
ansi_1252
  9
$INSBASE
 10
0.0
 20
0.0
 30
0.0
  9
$EXTMIN
 10
-0.0000000008003553
 20
-80.00000000021919
 30
0.0
  9
$EXTMAX
 10
800.0
 20
1120.000000000046
 30
0.0
  9
$LIMMIN
 10
0.0
 20
0.0
  9
$LIMMAX
 10
420.0
 20
297.0
  9
$ORTHOMODE
 70
     0
  9
$REGENMODE
 70
     1
  9
$FILLMODE
 70
     1
  9
$QTEXTMODE
 70
     0
  9
$MIRRTEXT
 70
     0
  9
$DRAGMODE
 70
     2
  9
$LTSCALE
 40
1.0
  9
$OSMODE
 70
    37
  9
$ATTMODE
 70
     1
  9
$TEXTSIZE
 40
25.0
  9
$TRACEWID
 40
1.0
  9
$TEXTSTYLE
  7
STANDARD
  9
$CLAYER
  8
0
  9
$CELTYPE
  6
BYLAYER
  9
$CECOLOR
 62
   256
  9
$DIMSCALE
 40
1.0
  9
$DIMASZ
 40
2.5
  9
$DIMEXO
 40
0.625
  9
$DIMDLI
 40
3.75
  9
$DIMRND
 40
0.0
  9
$DIMDLE
 40
0.0
  9
$DIMEXE
 40
1.25
  9
$DIMTP
 40
0.0
  9
$DIMTM
 40
0.0
  9
$DIMTXT
 40
2.5
  9
$DIMCEN
 40
2.5
  9
$DIMTSZ
 40
0.0
  9
$DIMTOL
 70
     0
  9
$DIMLIM
 70
     0
  9
$DIMTIH
 70
     0
  9
$DIMTOH
 70
     0
  9
$DIMSE1
 70
     0
  9
$DIMSE2
 70
     0
  9
$DIMTAD
 70
     1
  9
$DIMZIN
 70
     8
  9
$DIMBLK
  1

  9
$DIMASO
 70
     1
  9
$DIMSHO
 70
     1
  9
$DIMPOST
  1

  9
$DIMAPOST
  1

  9
$DIMALT
 70
     0
  9
$DIMALTD
 70
     3
  9
$DIMALTF
 40
0.03937007874016
  9
$DIMLFAC
 40
1.0
  9
$DIMTOFL
 70
     1
  9
$DIMTVP
 40
0.0
  9
$DIMTIX
 70
     0
  9
$DIMSOXD
 70
     0
  9
$DIMSAH
 70
     0
  9
$DIMBLK1
  1

  9
$DIMBLK2
  1

  9
$DIMSTYLE
  2
ISO-25
  9
$DIMCLRD
 70
     0
  9
$DIMCLRE
 70
     0
  9
$DIMCLRT
 70
     0
  9
$DIMTFAC
 40
1.0
  9
$DIMGAP
 40
0.625
  9
$LUNITS
 70
     2
  9
$LUPREC
 70
     4
  9
$SKETCHINC
 40
1.0
  9
$FILLETRAD
 40
0.0
  9
$AUNITS
 70
     0
  9
$AUPREC
 70
     0
  9
$MENU
  1
.
  9
$ELEVATION
 40
0.0
  9
$PELEVATION
 40
0.0
  9
$THICKNESS
 40
0.0
  9
$LIMCHECK
 70
     0
  9
$CHAMFERA
 40
0.0
  9
$CHAMFERB
 40
0.0
  9
$SKPOLY
 70
     0
  9
$TDCREATE
 40
2453353.758792488
  9
$TDUPDATE
 40
2458858.099976296
  9
$TDINDWG
 40
2440852.080755556
  9
$TDUSRTIMER
 40
2440852.080755556
  9
$USRTIMER
 70
     1
  9
$ANGBASE
 50
0.0
  9
$ANGDIR
 70
     0
  9
$PDMODE
 70
     0
  9
$PDSIZE
 40
0.0
  9
$PLINEWID
 40
9.0
  9
$COORDS
 70
     1
  9
$SPLFRAME
 70
     0
  9
$SPLINETYPE
 70
     6
  9
$SPLINESEGS
 70
     8
  9
$ATTDIA
 70
     0
  9
$ATTREQ
 70
     1
  9
$HANDLING
 70
     1
  9
$HANDSEED
  5
265
  9
$SURFTAB1
 70
     6
  9
$SURFTAB2
 70
     6
  9
$SURFTYPE
 70
     6
  9
$SURFU
 70
     6
  9
$SURFV
 70
     6
  9
$UCSNAME
  2

  9
$UCSORG
 10
0.0
 20
0.0
 30
0.0
  9
$UCSXDIR
 10
1.0
 20
0.0
 30
0.0
  9
$UCSYDIR
 10
0.0
 20
1.0
 30
0.0
  9
$PUCSNAME
  2

  9
$PUCSORG
 10
0.0
 20
0.0
 30
0.0
  9
$PUCSXDIR
 10
1.0
 20
0.0
 30
0.0
  9
$PUCSYDIR
 10
0.0
 20
1.0
 30
0.0
  9
$USERI1
 70
     0
  9
$USERI2
 70
     0
  9
$USERI3
 70
     0
  9
$USERI4
 70
     0
  9
$USERI5
 70
     0
  9
$USERR1
 40
0.0
  9
$USERR2
 40
0.0
  9
$USERR3
 40
0.0
  9
$USERR4
 40
0.0
  9
$USERR5
 40
0.0
  9
$WORLDVIEW
 70
     1
  9
$SHADEDGE
 70
     3
  9
$SHADEDIF
 70
    70
  9
$TILEMODE
 70
     1
  9
$MAXACTVP
 70
    64
  9
$PLIMCHECK
 70
     0
  9
$PEXTMIN
 10
1.000000000000000E+20
 20
1.000000000000000E+20
 30
1.000000000000000E+20
  9
$PEXTMAX
 10
-1.000000000000000E+20
 20
-1.000000000000000E+20
 30
-1.000000000000000E+20
  9
$PLIMMIN
 10
0.0
 20
0.0
  9
$PLIMMAX
 10
420.0
 20
297.0
  9
$UNITMODE
 70
     0
  9
$VISRETAIN
 70
     1
  9
$PLINEGEN
 70
     0
  9
$PSLTSCALE
 70
     1
  0
ENDSEC
  0
SECTION
  2
TABLES
  0
TABLE
  2
VPORT
 70
     1
  0
VPORT
  2
*ACTIVE
 70
     0
 10
0.0
 20
0.0
 11
1.0
 21
1.0
 12
805.7083756591187
 22
516.8297252099944
 13
0.0
 23
0.0
 14
10.0
 24
10.0
 15
10.0
 25
10.0
 16
0.0
 26
0.0
 36
1.0
 17
0.0
 27
0.0
 37
0.0
 40
1777.998006783281
 41
1.664827586206897
 42
50.0
 43
0.0
 44
0.0
 50
0.0
 51
0.0
 71
    16
 72
  1000
 73
     1
 74
     3
 75
     0
 76
     0
 77
     0
 78
     0
  0
ENDTAB
  0
TABLE
  2
LTYPE
 70
     1
  0
LTYPE
  2
CONTINUOUS
 70
     0
  3
Solid line
 72
    65
 73
     0
 40
0.0
  0
ENDTAB
  0
TABLE
  2
LAYER
 70
     1
  0
LAYER
  2
0
 70
     0
 62
     7
  6
CONTINUOUS
  0
ENDTAB
  0
TABLE
  2
STYLE
 70
     1
  0
STYLE
  2
STANDARD
 70
     0
 40
0.0
 41
1.0
 50
0.0
 71
     0
 42
2.5
  3
txt
  4

  0
ENDTAB
  0
TABLE
  2
VIEW
 70
     0
  0
ENDTAB
  0
TABLE
  2
UCS
 70
     0
  0
ENDTAB
  0
TABLE
  2
APPID
 70
     1
  0
APPID
  2
ACAD
 70
     0
  0
ENDTAB
  0
TABLE
  2
DIMSTYLE
 70
     2
  0
DIMSTYLE
  2
STANDARD
 70
     0
  3

  4

  5

  6

  7

 40
1.0
 41
0.18
 42
0.0625
 43
0.38
 44
0.18
 45
0.0
 46
0.0
 47
0.0
 48
0.0
140
0.18
141
0.09
142
0.0
143
25.4
144
1.0
145
0.0
146
1.0
147
0.09
 71
     0
 72
     0
 73
     1
 74
     1
 75
     0
 76
     0
 77
     0
 78
     0
170
     0
171
     2
172
     0
173
     0
174
     0
175
     0
176
     0
177
     0
178
     0
  0
DIMSTYLE
  2
ISO-25
 70
     0
  3

  4

  5

  6

  7

 40
1.0
 41
2.5
 42
0.625
 43
3.75
 44
1.25
 45
0.0
 46
0.0
 47
0.0
 48
0.0
140
2.5
141
2.5
142
0.0
143
0.03937007874016
144
1.0
145
0.0
146
1.0
147
0.625
 71
     0
 72
     0
 73
     0
 74
     0
 75
     0
 76
     0
 77
     1
 78
     8
170
     0
171
     3
172
     1
173
     0
174
     0
175
     0
176
     0
177
     0
178
     0
  0
ENDTAB
  0
ENDSEC
  0
SECTION
  2
BLOCKS
  0
BLOCK
  8
0
  2
$MODEL_SPACE
 70
     0
 10
0.0
 20
0.0
 30
0.0
  3
$MODEL_SPACE
  1

  0
ENDBLK
  5
21
  8
0
  0
BLOCK
 67
     1
  8
0
  2
$PAPER_SPACE
 70
     0
 10
0.0
 20
0.0
 30
0.0
  3
$PAPER_SPACE
  1

  0
ENDBLK
  5
76
 67
     1
  8
0
  0
BLOCK
  8
0
  2
NRE-248
 70
     0
 10
0.0
 20
0.0
 30
0.0
  3
NRE-248
  1

  0
LINE
  5
1E2
  8
0
 10
800.0
 20
-79.99999999968622
 30
0.0
 11
0.0
 21
-80.00000000021919
 31
0.0
  0
LINE
  5
1E3
  8
0
 10
0.0
 20
-80.00000000021919
 30
0.0
 11
-0.0000000008003553
 21
1119.999999999782
 31
0.0
  0
LINE
  5
1E4
  8
0
 10
-0.0000000008003553
 20
1119.999999999782
 30
0.0
 11
399.9999999991996
 21
1120.000000000046
 31
0.0
  0
LINE
  5
1E5
  8
0
 10
399.9999999991996
 20
1120.000000000046
 30
0.0
 11
399.9999999997317
 21
320.0000000000491
 31
0.0
  0
LINE
  5
1E6
  8
0
 10
399.9999999997317
 20
320.0000000000491
 30
0.0
 11
799.9999999997344
 21
320.0000000003165
 31
0.0
  0
POLYLINE
  5
1E7
  8
0
 66
     1
 10
0.0
 20
0.0
 30
0.0
 40
9.0
 41
9.0
  0
VERTEX
  5
20C
  8
0
 10
0.0
 20
0.0
 30
0.0
  0
VERTEX
  5
20D
  8
0
 10
799.9999999999473
 20
0.0
 30
0.0
  0
SEQEND
  5
20B
  8
0
  0
POLYLINE
  5
1E8
  8
0
 66
     1
 10
0.0
 20
0.0
 30
0.0
 70
     1
  0
VERTEX
  5
20F
  8
0
 10
383.4988344427666
 20
1120.000000000036
 30
0.0
  0
VERTEX
  5
210
  8
0
 10
-0.0000000006639311
 20
1120.000000000036
 30
0.0
  0
VERTEX
  5
211
  8
0
 10
-0.0000000006639311
 20
919.9999999997817
 30
0.0
  0
VERTEX
  5
212
  8
0
 10
383.4988344427666
 20
919.9999999997817
 30
0.0
  0
SEQEND
  5
20E
  8
0
  0
POLYLINE
  5
1E9
  8
0
 66
     1
 10
0.0
 20
0.0
 30
0.0
 40
9.0
 41
9.0
  0
VERTEX
  5
214
  8
0
 10
279.9999999997317
 20
320.0000000000473
 30
0.0
  0
VERTEX
  5
215
  8
0
 10
152.7903761426524
 20
711.5109651143512
 30
0.0
  0
VERTEX
  5
216
  8
0
 10
152.7903761422331
 20
919.9999999997817
 30
0.0
  0
SEQEND
  5
213
  8
0
  0
POLYLINE
  5
1EA
  8
0
 66
     1
 10
0.0
 20
0.0
 30
0.0
 40
9.0
 41
9.0
  0
VERTEX
  5
218
  8
0
 10
202.7903761422331
 20
919.9999999997817
 30
0.0
  0
VERTEX
  5
219
  8
0
 10
202.7903761427542
 20
557.6267882556222
 30
0.0
  0
SEQEND
  5
217
  8
0
  0
POLYLINE
  5
1EB
  8
0
 66
     1
 10
0.0
 20
0.0
 30
0.0
 40
9.0
 41
9.0
  0
VERTEX
  5
21B
  8
0
 10
232.7903761422331
 20
919.9999999997817
 30
0.0
  0
VERTEX
  5
21C
  8
0
 10
232.7903761427651
 20
541.7830929698821
 30
0.0
  0
VERTEX
  5
21D
  8
0
 10
256.4261005347198
 20
392.5530022903758
 30
0.0
  0
SEQEND
  5
21A
  8
0
  0
POLYLINE
  5
1EC
  8
0
 66
     1
 10
0.0
 20
0.0
 30
0.0
  0
VERTEX
  5
21E
  8
0
 10
279.9999999997317
 20
320.0000000000473
 30
0.0
  0
VERTEX
  5
21F
  8
0
 10
286.0278311473641
 20
302.5971812826078
 30
0.0
  0
VERTEX
  5
220
  8
0
 10
292.8233366565181
 20
285.1255656577951
 30
0.0
  0
VERTEX
  5
221
  8
0
 10
300.3639425782186
 20
267.6486074408449
 30
0.0
  0
VERTEX
  5
222
  8
0
 10
308.6270749634906
 20
250.2297609469935
 30
0.0
  0
VERTEX
  5
223
  8
0
 10
317.590159863359
 20
232.9324804914768
 30
0.0
  0
VERTEX
  5
224
  8
0
 10
327.2306233288487
 20
215.820220389531
 30
0.0
  0
VERTEX
  5
225
  8
0
 10
337.5258914109846
 20
198.9564349563921
 30
0.0
  0
VERTEX
  5
226
  8
0
 10
348.4533901607916
 20
182.4045785072961
 30
0.0
  0
VERTEX
  5
227
  8
0
 10
359.9905456292947
 20
166.2281053574791
 30
0.0
  0
VERTEX
  5
228
  8
0
 10
372.1147838675188
 20
150.4904698221773
 30
0.0
  0
VERTEX
  5
229
  8
0
 10
384.8035309264888
 20
135.2551262166265
 30
0.0
  0
VERTEX
  5
22A
  8
0
 10
398.0342128572296
 20
120.5855288560629
 30
0.0
  0
VERTEX
  5
22B
  8
0
 10
411.7842557107662
 20
106.5451320557225
 30
0.0
  0
VERTEX
  5
22C
  8
0
 10
426.0310855381234
 20
93.19739013084143
 30
0.0
  0
VERTEX
  5
22D
  8
0
 10
440.7521283903261
 20
80.60575739665572
 30
0.0
  0
VERTEX
  5
22E
  8
0
 10
455.9248103183994
 20
68.83368816840138
 30
0.0
  0
VERTEX
  5
22F
  8
0
 10
471.5265573733682
 20
57.94463676131451
 30
0.0
  0
VERTEX
  5
230
  8
0
 10
487.5347956062572
 20
48.00205749063116
 30
0.0
  0
VERTEX
  5
231
  8
0
 10
503.9269510680915
 20
39.06940467158737
 30
0.0
  0
VERTEX
  5
232
  8
0
 10
520.680449809896
 20
31.21013261941921
 30
0.0
  0
VERTEX
  5
233
  8
0
 10
537.7727178826955
 20
24.48769564936275
 30
0.0
  0
VERTEX
  5
234
  8
0
 10
555.1811813375152
 20
18.96554807665401
 30
0.0
  0
VERTEX
  5
235
  8
0
 10
572.8832662253798
 20
14.70714421652907
 30
0.0
  0
VERTEX
  5
236
  8
0
 10
590.8563984980755
 20
11.77593839654009
 30
0.0
  0
SEQEND
  5
237
  8
0
  0
LINE
  5
1ED
  8
0
 10
399.9999999996981
 20
370.9742952021343
 30
0.0
 11
302.8246038851112
 21
370.9742952021343
 31
0.0
  0
LINE
  5
1EE
  8
0
 10
302.8246038851112
 20
370.9742952021343
 30
0.0
 11
302.824603885244
 21
919.9999999999827
 31
0.0
  0
POLYLINE
  5
1EF
  8
0
 66
     1
 10
0.0
 20
0.0
 30
0.0
  0
VERTEX
  5
238
  8
0
 10
217.6181991345611
 20
153.436402751483
 30
0.0
  0
VERTEX
  5
239
  8
0
 10
228.4584925448673
 20
153.2318860305093
 30
0.0
  0
VERTEX
  5
23A
  8
0
 10
239.2893701417986
 20
152.627009127586
 30
0.0
  0
VERTEX
  5
23B
  8
0
 10
250.1043793877574
 20
151.6347819327097
 30
0.0
  0
VERTEX
  5
23C
  8
0
 10
260.8970677451456
 20
150.2682143358771
 30
0.0
  0
VERTEX
  5
23D
  8
0
 10
271.6609826763656
 20
148.5403162270847
 30
0.0
  0
VERTEX
  5
23E
  8
0
 10
282.3896716438194
 20
146.4640974963293
 30
0.0
  0
VERTEX
  5
23F
  8
0
 10
293.0766821099094
 20
144.0525680336074
 30
0.0
  0
VERTEX
  5
240
  8
0
 10
303.7155615370375
 20
141.3187377289158
 30
0.0
  0
VERTEX
  5
241
  8
0
 10
314.299857387606
 20
138.275616472251
 30
0.0
  0
VERTEX
  5
242
  8
0
 10
324.8231171240172
 20
134.9362141536097
 30
0.0
  0
VERTEX
  5
243
  8
0
 10
335.2788882086731
 20
131.3135406629885
 30
0.0
  0
VERTEX
  5
244
  8
0
 10
345.6607181039759
 20
127.420605890384
 30
0.0
  0
VERTEX
  5
245
  8
0
 10
355.9621542723279
 20
123.2704197257929
 30
0.0
  0
VERTEX
  5
246
  8
0
 10
366.1767441761311
 20
118.8759920592119
 30
0.0
  0
VERTEX
  5
247
  8
0
 10
376.2980352777879
 20
114.2503327806375
 30
0.0
  0
VERTEX
  5
248
  8
0
 10
386.3195750397001
 20
109.4064517800665
 30
0.0
  0
VERTEX
  5
249
  8
0
 10
396.2349109242703
 20
104.3573589474953
 30
0.0
  0
VERTEX
  5
24A
  8
0
 10
406.0375903939003
 20
99.11606417292079
 30
0.0
  0
VERTEX
  5
24B
  8
0
 10
415.7211609109925
 20
93.69557734633945
 30
0.0
  0
VERTEX
  5
24C
  8
0
 10
425.279169937949
 20
88.10890835774798
 30
0.0
  0
VERTEX
  5
24D
  8
0
 10
434.705164937172
 20
82.36906709714299
 30
0.0
  0
VERTEX
  5
24E
  8
0
 10
443.9926933710638
 20
76.48906345452113
 30
0.0
  0
VERTEX
  5
24F
  8
0
 10
453.1353027020263
 20
70.48190731987904
 30
0.0
  0
VERTEX
  5
250
  8
0
 10
462.1265403102564
 20
64.36060864015451
 30
0.0
  0
SEQEND
  5
251
  8
0
  0
POLYLINE
  5
1F0
  8
0
 66
     1
 10
0.0
 20
0.0
 30
0.0
 70
     1
  0
VERTEX
  5
253
  8
0
 10
-0.0000000001327862
 20
118.7867061260076
 30
0.0
  0
VERTEX
  5
254
  8
0
 10
127.3037023978559
 20
118.7867061260076
 30
0.0
  0
VERTEX
  5
255
  8
0
 10
127.3037023978559
 20
404.3517593154611
 30
0.0
  0
VERTEX
  5
256
  8
0
 10
-0.0000000001327862
 20
404.3517593154611
 30
0.0
  0
SEQEND
  5
252
  8
0
  0
POLYLINE
  5
1F1
  8
0
 66
     1
 10
0.0
 20
0.0
 30
0.0
 40
9.0
 41
9.0
  0
VERTEX
  5
258
  8
0
 10
127.3037023978559
 20
153.436402751483
 30
0.0
  0
VERTEX
  5
259
  8
0
 10
217.6181991345611
 20
153.436402751483
 30
0.0
  0
SEQEND
  5
257
  8
0
  0
POLYLINE
  5
1F2
  8
0
 66
     1
 10
0.0
 20
0.0
 30
0.0
 40
9.0
 41
9.0
  0
VERTEX
  5
25B
  8
0
 10
590.8563985973142
 20
11.77593838422399
 30
0.0
  0
VERTEX
  5
25C
  8
0
 10
731.5543458346392
 20
0.0
 30
0.0
  0
SEQEND
  5
25A
  8
0
  0
POLYLINE
  5
1F3
  8
0
 66
     1
 10
0.0
 20
0.0
 30
0.0
 40
9.0
 41
9.0
  0
VERTEX
  5
25E
  8
0
 10
217.6181991345611
 20
153.436402751483
 30
0.0
 42
-0.0916632458745649
  0
VERTEX
  5
25F
  8
0
 10
345.6607181039763
 20
127.4206058903847
 30
0.0
 42
-0.0596240167053829
  0
VERTEX
  5
260
  8
0
 10
461.5995918043864
 20
64.72524167017127
 30
0.0
 42
-7.471765833322976
  0
SEQEND
  5
25D
  8
0
  0
POLYLINE
  5
1F4
  8
0
 66
     1
 10
0.0
 20
0.0
 30
0.0
 40
9.0
 41
9.0
  0
VERTEX
  5
262
  8
0
 10
279.9999999997317
 20
320.0000000000473
 30
0.0
 42
0.1524993840543401
  0
VERTEX
  5
263
  8
0
 10
462.1265403924617
 20
64.36060858321343
 30
0.0
 42
0.1211441741307447
  0
VERTEX
  5
264
  8
0
 10
590.8563985973142
 20
11.77593838422399
 30
0.0
 42
3.045842762269531
  0
SEQEND
  5
261
  8
0
  0
LINE
  5
1F5
  8
0
 10
799.9999999997344
 20
320.0000000003165
 30
0.0
 11
800.0
 21
-79.99999999968622
 31
0.0
  0
TEXT
  5
1F6
  8
0
 10
588.646059883449
 20
75.24474899430368
 30
0.0
 40
50.0
  1
800
  0
TEXT
  5
1F7
  8
0
 10
520.670117681736
 20
166.0122895872031
 30
0.0
 40
50.0
  1
MiGru
  0
TEXT
  5
1F8
  8
0
 10
395.316326530211
 20
240.0849843585587
 30
0.0
 40
50.0
  1
NRE-248
  0
TEXT
  5
1F9
  8
0
 62
     2
 10
71.04479049132326
 20
62.0256219274155
 30
0.0
 40
25.0
  1
DL 01/20
  0
ENDBLK
  5
201
  8
0
  0
ENDSEC
  0
SECTION
  2
ENTITIES
  0
INSERT
  5
1FC
  8
0
  2
NRE-248
 10
0.0
 20
0.0
 30
0.0
  0
ENDSEC
  0
EOF
