  0
SECTION
  2
HEADER
  9
$ACADVER
  1
AC1009
  9
$DWGCODEPAGE
  3
ansi_1252
  9
$INSBASE
 10
0.0
 20
0.0
 30
0.0
  9
$EXTMIN
 10
-0.0000000000522959
 20
-250.0
 30
0.0
  9
$EXTMAX
 10
1600.000000000053
 20
250.0000000003365
 30
0.0
  9
$LIMMIN
 10
0.0
 20
0.0
  9
$LIMMAX
 10
420.0
 20
297.0
  9
$ORTHOMODE
 70
     0
  9
$REGENMODE
 70
     1
  9
$FILLMODE
 70
     1
  9
$QTEXTMODE
 70
     0
  9
$MIRRTEXT
 70
     0
  9
$DRAGMODE
 70
     2
  9
$LTSCALE
 40
1.0
  9
$OSMODE
 70
    37
  9
$ATTMODE
 70
     1
  9
$TEXTSIZE
 40
2.5
  9
$TRACEWID
 40
1.0
  9
$TEXTSTYLE
  7
STANDARD
  9
$CLAYER
  8
0
  9
$CELTYPE
  6
BYLAYER
  9
$CECOLOR
 62
   256
  9
$DIMSCALE
 40
1.0
  9
$DIMASZ
 40
2.5
  9
$DIMEXO
 40
0.625
  9
$DIMDLI
 40
3.75
  9
$DIMRND
 40
0.0
  9
$DIMDLE
 40
0.0
  9
$DIMEXE
 40
1.25
  9
$DIMTP
 40
0.0
  9
$DIMTM
 40
0.0
  9
$DIMTXT
 40
2.5
  9
$DIMCEN
 40
2.5
  9
$DIMTSZ
 40
0.0
  9
$DIMTOL
 70
     0
  9
$DIMLIM
 70
     0
  9
$DIMTIH
 70
     0
  9
$DIMTOH
 70
     0
  9
$DIMSE1
 70
     0
  9
$DIMSE2
 70
     0
  9
$DIMTAD
 70
     1
  9
$DIMZIN
 70
     8
  9
$DIMBLK
  1

  9
$DIMASO
 70
     1
  9
$DIMSHO
 70
     1
  9
$DIMPOST
  1

  9
$DIMAPOST
  1

  9
$DIMALT
 70
     0
  9
$DIMALTD
 70
     3
  9
$DIMALTF
 40
0.03937007874016
  9
$DIMLFAC
 40
1.0
  9
$DIMTOFL
 70
     1
  9
$DIMTVP
 40
0.0
  9
$DIMTIX
 70
     0
  9
$DIMSOXD
 70
     0
  9
$DIMSAH
 70
     0
  9
$DIMBLK1
  1

  9
$DIMBLK2
  1

  9
$DIMSTYLE
  2
ISO-25
  9
$DIMCLRD
 70
     0
  9
$DIMCLRE
 70
     0
  9
$DIMCLRT
 70
     0
  9
$DIMTFAC
 40
1.0
  9
$DIMGAP
 40
0.625
  9
$LUNITS
 70
     2
  9
$LUPREC
 70
     4
  9
$SKETCHINC
 40
1.0
  9
$FILLETRAD
 40
0.0
  9
$AUNITS
 70
     0
  9
$AUPREC
 70
     0
  9
$MENU
  1
.
  9
$ELEVATION
 40
0.0
  9
$PELEVATION
 40
0.0
  9
$THICKNESS
 40
0.0
  9
$LIMCHECK
 70
     0
  9
$CHAMFERA
 40
0.0
  9
$CHAMFERB
 40
0.0
  9
$SKPOLY
 70
     0
  9
$TDCREATE
 40
2453353.758792488
  9
$TDUPDATE
 40
2458465.115466667
  9
$TDINDWG
 40
2440852.080755556
  9
$TDUSRTIMER
 40
9833852.081057778
  9
$USRTIMER
 70
     1
  9
$ANGBASE
 50
0.0
  9
$ANGDIR
 70
     0
  9
$PDMODE
 70
     0
  9
$PDSIZE
 40
0.0
  9
$PLINEWID
 40
9.0
  9
$COORDS
 70
     1
  9
$SPLFRAME
 70
     0
  9
$SPLINETYPE
 70
     6
  9
$SPLINESEGS
 70
     8
  9
$ATTDIA
 70
     0
  9
$ATTREQ
 70
     1
  9
$HANDLING
 70
     1
  9
$HANDSEED
  5
30C
  9
$SURFTAB1
 70
     6
  9
$SURFTAB2
 70
     6
  9
$SURFTYPE
 70
     6
  9
$SURFU
 70
     6
  9
$SURFV
 70
     6
  9
$UCSNAME
  2

  9
$UCSORG
 10
0.0
 20
0.0
 30
0.0
  9
$UCSXDIR
 10
1.0
 20
0.0
 30
0.0
  9
$UCSYDIR
 10
0.0
 20
1.0
 30
0.0
  9
$PUCSNAME
  2

  9
$PUCSORG
 10
0.0
 20
0.0
 30
0.0
  9
$PUCSXDIR
 10
1.0
 20
0.0
 30
0.0
  9
$PUCSYDIR
 10
0.0
 20
1.0
 30
0.0
  9
$USERI1
 70
     0
  9
$USERI2
 70
     0
  9
$USERI3
 70
     0
  9
$USERI4
 70
     0
  9
$USERI5
 70
     0
  9
$USERR1
 40
0.0
  9
$USERR2
 40
0.0
  9
$USERR3
 40
0.0
  9
$USERR4
 40
0.0
  9
$USERR5
 40
0.0
  9
$WORLDVIEW
 70
     1
  9
$SHADEDGE
 70
     3
  9
$SHADEDIF
 70
    70
  9
$TILEMODE
 70
     1
  9
$MAXACTVP
 70
    64
  9
$PLIMCHECK
 70
     0
  9
$PEXTMIN
 10
1.000000000000000E+20
 20
1.000000000000000E+20
 30
1.000000000000000E+20
  9
$PEXTMAX
 10
-1.000000000000000E+20
 20
-1.000000000000000E+20
 30
-1.000000000000000E+20
  9
$PLIMMIN
 10
0.0
 20
0.0
  9
$PLIMMAX
 10
0.0
 20
0.0
  9
$UNITMODE
 70
     0
  9
$VISRETAIN
 70
     1
  9
$PLINEGEN
 70
     0
  9
$PSLTSCALE
 70
     1
  0
ENDSEC
  0
SECTION
  2
TABLES
  0
TABLE
  2
VPORT
 70
     1
  0
VPORT
  2
*ACTIVE
 70
     0
 10
0.0
 20
0.0
 11
1.0
 21
1.0
 12
668.488149397181
 22
82.36952550099599
 13
0.0
 23
0.0
 14
10.0
 24
10.0
 15
10.0
 25
10.0
 16
0.0
 26
0.0
 36
1.0
 17
0.0
 27
0.0
 37
0.0
 40
1054.413963799999
 41
2.308673469387755
 42
50.0
 43
0.0
 44
0.0
 50
0.0
 51
0.0
 71
    16
 72
  1000
 73
     1
 74
     3
 75
     0
 76
     0
 77
     0
 78
     0
  0
ENDTAB
  0
TABLE
  2
LTYPE
 70
     1
  0
LTYPE
  2
CONTINUOUS
 70
     0
  3
Solid line
 72
    65
 73
     0
 40
0.0
  0
ENDTAB
  0
TABLE
  2
LAYER
 70
     1
  0
LAYER
  2
0
 70
     0
 62
     7
  6
CONTINUOUS
  0
ENDTAB
  0
TABLE
  2
STYLE
 70
     1
  0
STYLE
  2
STANDARD
 70
     0
 40
0.0
 41
1.0
 50
0.0
 71
     0
 42
2.5
  3
txt
  4

  0
ENDTAB
  0
TABLE
  2
VIEW
 70
     0
  0
ENDTAB
  0
TABLE
  2
UCS
 70
     0
  0
ENDTAB
  0
TABLE
  2
APPID
 70
     1
  0
APPID
  2
ACAD
 70
     0
  0
ENDTAB
  0
TABLE
  2
DIMSTYLE
 70
     2
  0
DIMSTYLE
  2
STANDARD
 70
     0
  3

  4

  5

  6

  7

 40
1.0
 41
0.18
 42
0.0625
 43
0.38
 44
0.18
 45
0.0
 46
0.0
 47
0.0
 48
0.0
140
0.18
141
0.09
142
0.0
143
25.4
144
1.0
145
0.0
146
1.0
147
0.09
 71
     0
 72
     0
 73
     1
 74
     1
 75
     0
 76
     0
 77
     0
 78
     0
170
     0
171
     2
172
     0
173
     0
174
     0
175
     0
176
     0
177
     0
178
     0
  0
DIMSTYLE
  2
ISO-25
 70
     0
  3

  4

  5

  6

  7

 40
1.0
 41
2.5
 42
0.625
 43
3.75
 44
1.25
 45
0.0
 46
0.0
 47
0.0
 48
0.0
140
2.5
141
2.5
142
0.0
143
0.03937007874016
144
1.0
145
0.0
146
1.0
147
0.625
 71
     0
 72
     0
 73
     0
 74
     0
 75
     0
 76
     0
 77
     1
 78
     8
170
     0
171
     3
172
     1
173
     0
174
     0
175
     0
176
     0
177
     0
178
     0
  0
ENDTAB
  0
ENDSEC
  0
SECTION
  2
BLOCKS
  0
BLOCK
  8
0
  2
$MODEL_SPACE
 70
     0
 10
0.0
 20
0.0
 30
0.0
  3
$MODEL_SPACE
  1

  0
ENDBLK
  5
21
  8
0
  0
BLOCK
 67
     1
  8
0
  2
$PAPER_SPACE
 70
     0
 10
0.0
 20
0.0
 30
0.0
  3
$PAPER_SPACE
  1

  0
ENDBLK
  5
76
 67
     1
  8
0
  0
BLOCK
  8
0
  2
HABALPLUS
 70
     0
 10
0.0
 20
0.0
 30
0.0
  3
HABALPLUS
  1

  0
POLYLINE
  5
C1
  8
0
 66
     1
 10
0.0
 20
0.0
 30
0.0
 70
     1
  0
VERTEX
  5
267
  8
0
 10
0.0
 20
0.0
 30
0.0
  0
VERTEX
  5
268
  8
0
 10
799.9999999999944
 20
-0.0000000003416748
 30
0.0
  0
VERTEX
  5
269
  8
0
 10
800.0000000002161
 20
499.9999999996603
 30
0.0
  0
VERTEX
  5
26A
  8
0
 10
0.0000000002074605
 20
500.0000000000061
 30
0.0
  0
SEQEND
  5
266
  8
0
  0
POLYLINE
  5
C2
  8
0
 66
     1
 10
0.0
 20
0.0
 30
0.0
 70
     1
  0
VERTEX
  5
26C
  8
0
 10
400.000000002816
 20
499.9999999998368
 30
0.0
  0
VERTEX
  5
26D
  8
0
 10
400.0000000031467
 20
1299.999999999836
 30
0.0
  0
VERTEX
  5
26E
  8
0
 10
0.0000000031504874
 20
1300.0
 30
0.0
  0
VERTEX
  5
26F
  8
0
 10
0.0000000028199802
 20
500.0000000000029
 30
0.0
  0
SEQEND
  5
26B
  8
0
  0
POLYLINE
  5
C3
  8
0
 66
     1
 10
0.0
 20
0.0
 30
0.0
 70
     1
  0
VERTEX
  5
271
  8
0
 10
400.0000000031467
 20
1299.999999999836
 30
0.0
  0
VERTEX
  5
272
  8
0
 10
400.0000000034809
 20
2099.999999999837
 30
0.0
  0
VERTEX
  5
273
  8
0
 10
0.0000000034810155
 20
2100.0
 30
0.0
  0
VERTEX
  5
274
  8
0
 10
0.0000000031468324
 20
1300.000000000001
 30
0.0
  0
SEQEND
  5
270
  8
0
  0
POLYLINE
  5
C4
  8
0
 66
     1
 10
0.0
 20
0.0
 30
0.0
 70
     1
  0
VERTEX
  5
276
  8
0
 10
799.9999999999986
 20
-0.0000000003335681
 30
0.0
  0
VERTEX
  5
277
  8
0
 10
2399.999999999999
 20
0.0000000000028739
 30
0.0
  0
VERTEX
  5
278
  8
0
 10
2399.999999999894
 20
500.0000000000029
 30
0.0
  0
VERTEX
  5
279
  8
0
 10
799.9999999998935
 20
499.9999999996664
 30
0.0
  0
SEQEND
  5
275
  8
0
  0
POLYLINE
  5
C5
  8
0
 66
     1
 10
0.0
 20
0.0
 30
0.0
 40
9.0
 41
9.0
  0
VERTEX
  5
27B
  8
0
 10
799.9999999999818
 20
79.99999999966643
 30
0.0
  0
VERTEX
  5
27C
  8
0
 10
2399.999999999982
 20
80.00000000000287
 30
0.0
  0
SEQEND
  5
27A
  8
0
  0
POLYLINE
  5
C6
  8
0
 66
     1
 10
0.0
 20
0.0
 30
0.0
 40
9.0
 41
9.0
  0
VERTEX
  5
27E
  8
0
 10
799.9999999999145
 20
399.9999999996664
 30
0.0
  0
VERTEX
  5
27F
  8
0
 10
2399.999999999915
 20
400.0000000000029
 30
0.0
  0
SEQEND
  5
27D
  8
0
  0
POLYLINE
  5
C7
  8
0
 66
     1
 10
0.0
 20
0.0
 30
0.0
 40
9.0
 41
9.0
  0
VERTEX
  5
281
  8
0
 10
799.9999999999197
 20
374.9999999996664
 30
0.0
  0
VERTEX
  5
282
  8
0
 10
2399.99999999992
 20
375.0000000000029
 30
0.0
  0
SEQEND
  5
280
  8
0
  0
POLYLINE
  5
C8
  8
0
 66
     1
 10
0.0
 20
0.0
 30
0.0
 40
9.0
 41
9.0
  0
VERTEX
  5
284
  8
0
 10
2191.331525258217
 20
104.999999999959
 30
0.0
  0
VERTEX
  5
285
  8
0
 10
2349.175313125098
 20
79.9999999999922
 30
0.0
  0
SEQEND
  5
283
  8
0
  0
POLYLINE
  5
C9
  8
0
 66
     1
 10
0.0
 20
0.0
 30
0.0
 40
9.0
 41
9.0
  0
VERTEX
  5
287
  8
0
 10
1008.668474741736
 20
104.9999999997103
 30
0.0
  0
VERTEX
  5
288
  8
0
 10
850.8246868748654
 20
79.99999999967713
 30
0.0
  0
SEQEND
  5
286
  8
0
  0
POLYLINE
  5
CA
  8
0
 66
     1
 10
0.0
 20
0.0
 30
0.0
 40
9.0
 41
9.0
  0
VERTEX
  5
28A
  8
0
 10
1008.668474741736
 20
104.9999999997103
 30
0.0
  0
VERTEX
  5
28B
  8
0
 10
2191.331525258217
 20
104.999999999959
 30
0.0
  0
SEQEND
  5
289
  8
0
  0
POLYLINE
  5
CB
  8
0
 66
     1
 10
0.0
 20
0.0
 30
0.0
 40
9.0
 41
9.0
  0
VERTEX
  5
28D
  8
0
 10
1581.471710423398
 20
359.3031664289915
 30
0.0
  0
VERTEX
  5
28E
  8
0
 10
1482.365803689906
 20
374.9999999998099
 30
0.0
  0
SEQEND
  5
28C
  8
0
  0
POLYLINE
  5
CC
  8
0
 66
     1
 10
0.0
 20
0.0
 30
0.0
 40
9.0
 41
9.0
  0
VERTEX
  5
290
  8
0
 10
1164.522015823025
 20
399.9999999997431
 30
0.0
  0
VERTEX
  5
291
  8
0
 10
1322.365803689906
 20
374.9999999997763
 30
0.0
  0
SEQEND
  5
28F
  8
0
  0
TEXT
  5
CD
  8
0
 10
1826.327120095237
 20
293.5738108358752
 30
0.0
 40
50.0
  1
Hafen Bahlke
  0
LINE
  5
CE
  8
0
 10
2399.99999999991
 20
420.2805877812356
 30
0.0
 11
799.9999999999103
 21
420.2805877808991
 31
0.0
  0
POLYLINE
  5
CF
  8
0
 66
     1
 10
0.0
 20
0.0
 30
0.0
 40
9.0
 41
9.0
  0
VERTEX
  5
293
  8
0
 10
1581.471710423398
 20
359.3031664289915
 30
0.0
 42
-0.0710713514266129
  0
VERTEX
  5
294
  8
0
 10
1752.842446041143
 20
302.9954155117717
 30
0.0
 42
-0.0191221509546867
  0
VERTEX
  5
295
  8
0
 10
1886.401617840808
 20
232.1515832144752
 30
0.0
 42
0.0139152491309826
  0
VERTEX
  5
296
  8
0
 10
2009.039103929178
 20
166.5353533022673
 30
0.0
 42
0.0687718996543256
  0
VERTEX
  5
297
  8
0
 10
2191.331525258217
 20
104.999999999959
 30
0.0
 42
9.634919633888911
  0
SEQEND
  5
292
  8
0
  0
LINE
  5
D0
  8
0
 10
1599.999999999894
 20
499.9999999998347
 30
0.0
 11
1599.999999999999
 21
-0.0000000001653471
 31
0.0
  0
POLYLINE
  5
D1
  8
0
 66
     1
 10
0.0
 20
0.0
 30
0.0
 40
9.0
 41
9.0
  0
VERTEX
  5
299
  8
0
 10
1919.037352282598
 20
213.8266945064621
 30
0.0
  0
VERTEX
  5
29A
  8
0
 10
1850.024319554938
 20
232.7553816831102
 30
0.0
  0
VERTEX
  5
29B
  8
0
 10
1777.935697503776
 20
245.3894700838292
 30
0.0
  0
VERTEX
  5
29C
  8
0
 10
1681.136284904149
 20
253.4845068693679
 30
0.0
  0
VERTEX
  5
29D
  8
0
 10
860.3899680733014
 20
253.4845068693679
 30
0.0
  0
SEQEND
  5
298
  8
0
  0
POLYLINE
  5
D2
  8
0
 66
     1
 10
0.0
 20
0.0
 30
0.0
 70
     1
  0
VERTEX
  5
29F
  8
0
 10
1277.34628031578
 20
309.6132412097016
 30
0.0
  0
VERTEX
  5
2A0
  8
0
 10
860.3899680733014
 20
309.6132412097016
 30
0.0
  0
VERTEX
  5
2A1
  8
0
 10
860.3899680733014
 20
197.3557725290342
 30
0.0
  0
VERTEX
  5
2A2
  8
0
 10
1277.34628031578
 20
197.3557725290342
 30
0.0
  0
SEQEND
  5
29E
  8
0
  0
POLYLINE
  5
D3
  8
0
 66
     1
 10
0.0
 20
0.0
 30
0.0
 40
9.0
 41
9.0
  0
VERTEX
  5
2A4
  8
0
 10
799.9999999999145
 20
399.9999999996664
 30
0.0
  0
VERTEX
  5
2A5
  8
0
 10
350.3543036666947
 20
399.9999999996664
 30
0.0
  0
SEQEND
  5
2A3
  8
0
  0
POLYLINE
  5
D4
  8
0
 66
     1
 10
0.0
 20
0.0
 30
0.0
 40
9.0
 41
9.0
  0
VERTEX
  5
2A7
  8
0
 10
350.3543036666947
 20
412.2363532311334
 30
0.0
  0
VERTEX
  5
2A8
  8
0
 10
350.3543036666947
 20
387.7636467681994
 30
0.0
  0
SEQEND
  5
2A6
  8
0
  0
POLYLINE
  5
D5
  8
0
 66
     1
 10
0.0
 20
0.0
 30
0.0
 40
9.0
 41
9.0
  0
VERTEX
  5
2AA
  8
0
 10
350.3543036666999
 20
387.2363532311334
 30
0.0
  0
VERTEX
  5
2AB
  8
0
 10
350.3543036666999
 20
362.7636467681994
 30
0.0
  0
SEQEND
  5
2A9
  8
0
  0
POLYLINE
  5
D6
  8
0
 66
     1
 10
0.0
 20
0.0
 30
0.0
 40
9.0
 41
9.0
  0
VERTEX
  5
2AD
  8
0
 10
799.9999999999197
 20
374.9999999996664
 30
0.0
  0
VERTEX
  5
2AE
  8
0
 10
350.3543036666999
 20
374.9999999996664
 30
0.0
  0
SEQEND
  5
2AC
  8
0
  0
POLYLINE
  5
D7
  8
0
 66
     1
 10
0.0
 20
0.0
 30
0.0
 40
9.0
 41
9.0
  0
VERTEX
  5
2B0
  8
0
 10
0.0000000002074785
 20
79.99999999966643
 30
0.0
  0
VERTEX
  5
2B1
  8
0
 10
799.9999999999818
 20
79.99999999966643
 30
0.0
  0
SEQEND
  5
2AF
  8
0
  0
POLYLINE
  5
D8
  8
0
 66
     1
 10
0.0
 20
0.0
 30
0.0
 40
9.0
 41
9.0
  0
VERTEX
  5
2B3
  8
0
 10
80.00000000282807
 20
2099.999999999837
 30
0.0
  0
VERTEX
  5
2B4
  8
0
 10
80.00000000282807
 20
1300.000000000001
 30
0.0
  0
SEQEND
  5
2B2
  8
0
  0
POLYLINE
  5
D9
  8
0
 66
     1
 10
0.0
 20
0.0
 30
0.0
 40
9.0
 41
9.0
  0
VERTEX
  5
2B6
  8
0
 10
105.0000000028281
 20
2099.999999999837
 30
0.0
  0
VERTEX
  5
2B7
  8
0
 10
105.0000000028281
 20
1300.000000000001
 30
0.0
  0
SEQEND
  5
2B5
  8
0
  0
POLYLINE
  5
DA
  8
0
 66
     1
 10
0.0
 20
0.0
 30
0.0
 40
9.0
 41
9.0
  0
VERTEX
  5
2B9
  8
0
 10
130.0000000028281
 20
2099.999999999837
 30
0.0
  0
VERTEX
  5
2BA
  8
0
 10
130.0000000028281
 20
1300.000000000001
 30
0.0
  0
SEQEND
  5
2B8
  8
0
  0
POLYLINE
  5
DB
  8
0
 66
     1
 10
0.0
 20
0.0
 30
0.0
 40
9.0
 41
9.0
  0
VERTEX
  5
2BC
  8
0
 10
155.0000000028281
 20
2099.999999999837
 30
0.0
  0
VERTEX
  5
2BD
  8
0
 10
155.0000000028281
 20
1300.000000000001
 30
0.0
  0
SEQEND
  5
2BB
  8
0
  0
POLYLINE
  5
DC
  8
0
 66
     1
 10
0.0
 20
0.0
 30
0.0
 40
9.0
 41
9.0
  0
VERTEX
  5
2BF
  8
0
 10
180.0000000028281
 20
2099.999999999837
 30
0.0
  0
VERTEX
  5
2C0
  8
0
 10
180.0000000028281
 20
1300.000000000001
 30
0.0
  0
SEQEND
  5
2BE
  8
0
  0
POLYLINE
  5
DD
  8
0
 66
     1
 10
0.0
 20
0.0
 30
0.0
 40
9.0
 41
9.0
  0
VERTEX
  5
2C2
  8
0
 10
80.00000000282807
 20
1299.999999999836
 30
0.0
  0
VERTEX
  5
2C3
  8
0
 10
80.00000000282807
 20
499.9999999999996
 30
0.0
  0
SEQEND
  5
2C1
  8
0
  0
POLYLINE
  5
DE
  8
0
 66
     1
 10
0.0
 20
0.0
 30
0.0
 40
9.0
 41
9.0
  0
VERTEX
  5
2C5
  8
0
 10
180.0000000028281
 20
1216.971142804561
 30
0.0
  0
VERTEX
  5
2C6
  8
0
 10
105.0000000028281
 20
743.4397792039335
 30
0.0
  0
SEQEND
  5
2C4
  8
0
  0
POLYLINE
  5
DF
  8
0
 66
     1
 10
0.0
 20
0.0
 30
0.0
 40
9.0
 41
9.0
  0
VERTEX
  5
2C8
  8
0
 10
180.0000000028281
 20
1300.000000000001
 30
0.0
  0
VERTEX
  5
2C9
  8
0
 10
180.0000000028281
 20
1216.971142804561
 30
0.0
  0
SEQEND
  5
2C7
  8
0
  0
POLYLINE
  5
E0
  8
0
 66
     1
 10
0.0
 20
0.0
 30
0.0
 40
9.0
 41
9.0
  0
VERTEX
  5
2CB
  8
0
 10
105.0000000028281
 20
1300.000000000001
 30
0.0
  0
VERTEX
  5
2CC
  8
0
 10
105.0000000028281
 20
743.4397792039335
 30
0.0
  0
SEQEND
  5
2CA
  8
0
  0
POLYLINE
  5
E1
  8
0
 66
     1
 10
0.0
 20
0.0
 30
0.0
 40
9.0
 41
9.0
  0
VERTEX
  5
2CE
  8
0
 10
130.0000000028281
 20
1300.000000000001
 30
0.0
  0
VERTEX
  5
2CF
  8
0
 10
130.0000000028281
 20
901.2835670708095
 30
0.0
  0
SEQEND
  5
2CD
  8
0
  0
POLYLINE
  5
E2
  8
0
 66
     1
 10
0.0
 20
0.0
 30
0.0
 40
9.0
 41
9.0
  0
VERTEX
  5
2D1
  8
0
 10
155.0000000028281
 20
1300.000000000001
 30
0.0
  0
VERTEX
  5
2D2
  8
0
 10
155.0000000028281
 20
1059.127354937685
 30
0.0
  0
SEQEND
  5
2D0
  8
0
  0
POLYLINE
  5
E3
  8
0
 66
     1
 10
0.0
 20
0.0
 30
0.0
 40
9.0
 41
9.0
  0
VERTEX
  5
2D4
  8
0
 10
105.0000000028281
 20
743.4397792039335
 30
0.0
  0
VERTEX
  5
2D5
  8
0
 10
80.00000000282807
 20
585.5959913370577
 30
0.0
  0
SEQEND
  5
2D3
  8
0
  0
POLYLINE
  5
E4
  8
0
 66
     1
 10
0.0
 20
0.0
 30
0.0
 40
9.0
 41
9.0
  0
VERTEX
  5
2D7
  8
0
 10
348.8595235295971
 20
104.9999999992624
 30
0.0
  0
VERTEX
  5
2D8
  8
0
 10
506.7033113965369
 20
79.99999999966643
 30
0.0
  0
SEQEND
  5
2D6
  8
0
  0
POLYLINE
  5
E5
  8
0
 66
     1
 10
0.0
 20
0.0
 30
0.0
 40
9.0
 41
9.0
  0
VERTEX
  5
2DA
  8
0
 10
80.00000000282807
 20
500.000000000003
 30
0.0
 42
0.1341784341407612
  0
VERTEX
  5
2DB
  8
0
 10
155.4378013554241
 20
252.1161060150222
 30
0.0
 42
0.0726849383594297
  0
VERTEX
  5
2DC
  8
0
 10
234.3248391985806
 20
159.8338435782935
 30
0.0
 42
0.1367812419037852
  0
VERTEX
  5
2DD
  8
0
 10
348.8595235295971
 20
104.9999999992624
 30
0.0
 42
2.370045416404165
  0
SEQEND
  5
2D9
  8
0
  0
ENDBLK
  5
25A
  8
0
  0
BLOCK
  8
0
  2
NRE-480
 70
     0
 10
0.0
 20
0.0
 30
0.0
  3
NRE-480
  1

  0
POLYLINE
  5
23E
  8
0
 66
     1
 10
0.0
 20
0.0
 30
0.0
 70
     1
  0
VERTEX
  5
2DF
  8
0
 10
0.0000000000527507
 20
-250.0
 30
0.0
  0
VERTEX
  5
2E0
  8
0
 10
1600.000000000053
 20
-249.9999999996636
 30
0.0
  0
VERTEX
  5
2E1
  8
0
 10
1599.999999999948
 20
250.0000000003365
 30
0.0
  0
VERTEX
  5
2E2
  8
0
 10
-0.0000000000522959
 20
250.0
 30
0.0
  0
SEQEND
  5
2DE
  8
0
  0
POLYLINE
  5
23F
  8
0
 66
     1
 10
0.0
 20
0.0
 30
0.0
 40
9.0
 41
9.0
  0
VERTEX
  5
2E4
  8
0
 10
0.000000000035925
 20
-170.0
 30
0.0
  0
VERTEX
  5
2E5
  8
0
 10
1600.000000000036
 20
-169.9999999996636
 30
0.0
  0
SEQEND
  5
2E3
  8
0
  0
POLYLINE
  5
240
  8
0
 66
     1
 10
0.0
 20
0.0
 30
0.0
 40
9.0
 41
9.0
  0
VERTEX
  5
2E7
  8
0
 10
-0.0000000000313776
 20
150.0
 30
0.0
  0
VERTEX
  5
2E8
  8
0
 10
1599.999999999969
 20
150.0000000003365
 30
0.0
  0
SEQEND
  5
2E6
  8
0
  0
POLYLINE
  5
241
  8
0
 66
     1
 10
0.0
 20
0.0
 30
0.0
 40
9.0
 41
9.0
  0
VERTEX
  5
2EA
  8
0
 10
-0.0000000000263753
 20
125.0
 30
0.0
  0
VERTEX
  5
2EB
  8
0
 10
1599.999999999974
 20
125.0000000003365
 30
0.0
  0
SEQEND
  5
2E9
  8
0
  0
POLYLINE
  5
242
  8
0
 66
     1
 10
0.0
 20
0.0
 30
0.0
 40
9.0
 41
9.0
  0
VERTEX
  5
2ED
  8
0
 10
1391.331525258271
 20
-144.9999999997075
 30
0.0
  0
VERTEX
  5
2EE
  8
0
 10
1549.175313125152
 20
-169.9999999996742
 30
0.0
  0
SEQEND
  5
2EC
  8
0
  0
POLYLINE
  5
243
  8
0
 66
     1
 10
0.0
 20
0.0
 30
0.0
 40
9.0
 41
9.0
  0
VERTEX
  5
2F0
  8
0
 10
208.6684747417901
 20
-144.9999999999561
 30
0.0
  0
VERTEX
  5
2F1
  8
0
 10
50.82468687491928
 20
-169.9999999999893
 30
0.0
  0
SEQEND
  5
2EF
  8
0
  0
POLYLINE
  5
244
  8
0
 66
     1
 10
0.0
 20
0.0
 30
0.0
 40
9.0
 41
9.0
  0
VERTEX
  5
2F3
  8
0
 10
208.6684747417901
 20
-144.9999999999561
 30
0.0
  0
VERTEX
  5
2F4
  8
0
 10
1391.331525258271
 20
-144.9999999997075
 30
0.0
  0
SEQEND
  5
2F2
  8
0
  0
POLYLINE
  5
245
  8
0
 66
     1
 10
0.0
 20
0.0
 30
0.0
 40
9.0
 41
9.0
  0
VERTEX
  5
2F6
  8
0
 10
781.4717104234524
 20
109.3031664293251
 30
0.0
  0
VERTEX
  5
2F7
  8
0
 10
682.3658036899606
 20
125.0000000001435
 30
0.0
  0
SEQEND
  5
2F5
  8
0
  0
POLYLINE
  5
246
  8
0
 66
     1
 10
0.0
 20
0.0
 30
0.0
 40
9.0
 41
9.0
  0
VERTEX
  5
2F9
  8
0
 10
364.5220158230795
 20
150.0000000000766
 30
0.0
  0
VERTEX
  5
2FA
  8
0
 10
522.3658036899606
 20
125.0000000001098
 30
0.0
  0
SEQEND
  5
2F8
  8
0
  0
LINE
  5
247
  8
0
 10
1599.999999999964
 20
170.2805877815691
 30
0.0
 11
-0.0000000000354703
 21
170.2805877812327
 31
0.0
  0
POLYLINE
  5
248
  8
0
 66
     1
 10
0.0
 20
0.0
 30
0.0
 40
9.0
 41
9.0
  0
VERTEX
  5
2FC
  8
0
 10
781.4717104234524
 20
109.3031664293251
 30
0.0
 42
-0.0710713514266129
  0
VERTEX
  5
2FD
  8
0
 10
952.8424460411975
 20
52.99541551210524
 30
0.0
 42
-0.0191221509546867
  0
VERTEX
  5
2FE
  8
0
 10
1086.401617840862
 20
-17.84841678519121
 30
0.0
 42
0.0139152491309826
  0
VERTEX
  5
2FF
  8
0
 10
1209.039103929232
 20
-83.46464669739908
 30
0.0
 42
0.0687718996543256
  0
VERTEX
  5
300
  8
0
 10
1391.331525258271
 20
-144.9999999997075
 30
0.0
 42
9.634919633888911
  0
SEQEND
  5
2FB
  8
0
  0
LINE
  5
249
  8
0
 10
799.9999999999477
 20
250.0000000001683
 30
0.0
 11
800.0000000000528
 21
-249.9999999998318
 31
0.0
  0
POLYLINE
  5
24A
  8
0
 66
     1
 10
0.0
 20
0.0
 30
0.0
 40
9.0
 41
9.0
  0
VERTEX
  5
302
  8
0
 10
1119.037352282652
 20
-36.17330549320434
 30
0.0
  0
VERTEX
  5
303
  8
0
 10
1050.024319554992
 20
-17.24461831655628
 30
0.0
  0
VERTEX
  5
304
  8
0
 10
977.9356975038302
 20
-4.610529915837219
 30
0.0
  0
VERTEX
  5
305
  8
0
 10
881.1362849042034
 20
3.484506869701477
 30
0.0
  0
VERTEX
  5
306
  8
0
 10
60.3899680733557
 20
3.484506869701477
 30
0.0
  0
SEQEND
  5
301
  8
0
  0
POLYLINE
  5
24B
  8
0
 66
     1
 10
0.0
 20
0.0
 30
0.0
 70
     1
  0
VERTEX
  5
308
  8
0
 10
477.3462803158341
 20
59.6132412100352
 30
0.0
  0
VERTEX
  5
309
  8
0
 10
60.3899680733557
 20
59.6132412100352
 30
0.0
  0
VERTEX
  5
30A
  8
0
 10
60.3899680733557
 20
-52.64422747063225
 30
0.0
  0
VERTEX
  5
30B
  8
0
 10
477.3462803158341
 20
-52.64422747063225
 30
0.0
  0
SEQEND
  5
307
  8
0
  0
TEXT
  5
24C
  8
0
 10
1321.410130167774
 20
-21.83633704491376
 30
0.0
 40
50.0
  1
MatBa
  0
TEXT
  5
24D
  8
0
 10
1227.314998991818
 20
42.7885408362215
 30
0.0
 40
50.0
  1
NRE-480
  0
TEXT
  5
24E
  8
0
 10
1397.430011053644
 20
-105.9302876010421
 30
0.0
 40
50.0
  1
1600
  0
TEXT
  5
24F
  8
0
 62
     2
 10
52.15162788849739
 20
197.799259216368
 30
0.0
 40
30.0
  1
DL12/18
1001
ACAD
1000
ACAD_MTEXT_DEFINED_HEIGHT_BEGIN
1070
    46
1040
2.5
1000
ACAD_MTEXT_DEFINED_HEIGHT_END
  0
TEXT
  5
250
  8
0
 10
345.8810776464334
 20
-114.3424684520387
 30
0.0
 40
30.0
  1
Westhafen
  0
ENDBLK
  5
25C
  8
0
  0
ENDSEC
  0
SECTION
  2
ENTITIES
  0
INSERT
  5
253
  8
0
  2
NRE-480
 10
0.0
 20
0.0
 30
0.0
  0
ENDSEC
  0
EOF
