  0
SECTION
  2
HEADER
  9
$ACADVER
  1
AC1009
  9
$DWGCODEPAGE
  3
ansi_1252
  9
$INSBASE
 10
0.0
 20
0.0
 30
0.0
  9
$EXTMIN
 10
1071.596381258928
 20
-552.9315083070316
 30
0.0
  9
$EXTMAX
 10
4671.596381258928
 20
547.0684916929685
 30
0.0
  9
$LIMMIN
 10
0.0
 20
0.0
  9
$LIMMAX
 10
420.0
 20
297.0
  9
$ORTHOMODE
 70
     0
  9
$REGENMODE
 70
     1
  9
$FILLMODE
 70
     1
  9
$QTEXTMODE
 70
     0
  9
$MIRRTEXT
 70
     0
  9
$DRAGMODE
 70
     2
  9
$LTSCALE
 40
1.0
  9
$OSMODE
 70
    37
  9
$ATTMODE
 70
     1
  9
$TEXTSIZE
 40
50.0
  9
$TRACEWID
 40
1.0
  9
$TEXTSTYLE
  7
STANDARD
  9
$CLAYER
  8
0
  9
$CELTYPE
  6
BYLAYER
  9
$CECOLOR
 62
   256
  9
$DIMSCALE
 40
1.0
  9
$DIMASZ
 40
2.5
  9
$DIMEXO
 40
0.625
  9
$DIMDLI
 40
3.75
  9
$DIMRND
 40
0.0
  9
$DIMDLE
 40
0.0
  9
$DIMEXE
 40
1.25
  9
$DIMTP
 40
0.0
  9
$DIMTM
 40
0.0
  9
$DIMTXT
 40
50.0
  9
$DIMCEN
 40
2.5
  9
$DIMTSZ
 40
0.0
  9
$DIMTOL
 70
     0
  9
$DIMLIM
 70
     0
  9
$DIMTIH
 70
     0
  9
$DIMTOH
 70
     0
  9
$DIMSE1
 70
     0
  9
$DIMSE2
 70
     0
  9
$DIMTAD
 70
     1
  9
$DIMZIN
 70
     8
  9
$DIMBLK
  1

  9
$DIMASO
 70
     1
  9
$DIMSHO
 70
     1
  9
$DIMPOST
  1

  9
$DIMAPOST
  1

  9
$DIMALT
 70
     0
  9
$DIMALTD
 70
     3
  9
$DIMALTF
 40
0.03937007874016
  9
$DIMLFAC
 40
1.0
  9
$DIMTOFL
 70
     1
  9
$DIMTVP
 40
0.0
  9
$DIMTIX
 70
     0
  9
$DIMSOXD
 70
     0
  9
$DIMSAH
 70
     0
  9
$DIMBLK1
  1

  9
$DIMBLK2
  1

  9
$DIMSTYLE
  2
STANDARD
  9
$DIMCLRD
 70
     0
  9
$DIMCLRE
 70
     0
  9
$DIMCLRT
 70
     0
  9
$DIMTFAC
 40
1.0
  9
$DIMGAP
 40
0.625
  9
$LUNITS
 70
     2
  9
$LUPREC
 70
     4
  9
$SKETCHINC
 40
1.0
  9
$FILLETRAD
 40
0.0
  9
$AUNITS
 70
     0
  9
$AUPREC
 70
     0
  9
$MENU
  1
.
  9
$ELEVATION
 40
0.0
  9
$PELEVATION
 40
0.0
  9
$THICKNESS
 40
0.0
  9
$LIMCHECK
 70
     0
  9
$CHAMFERA
 40
0.0
  9
$CHAMFERB
 40
0.0
  9
$SKPOLY
 70
     0
  9
$TDCREATE
 40
2453353.800459155
  9
$TDUPDATE
 40
2454589.141497778
  9
$TDINDWG
 40
4895786.051922963
  9
$TDUSRTIMER
 40
9763088.046677036
  9
$USRTIMER
 70
     1
  9
$ANGBASE
 50
0.0
  9
$ANGDIR
 70
     0
  9
$PDMODE
 70
     0
  9
$PDSIZE
 40
0.0
  9
$PLINEWID
 40
9.0
  9
$COORDS
 70
     1
  9
$SPLFRAME
 70
     0
  9
$SPLINETYPE
 70
     6
  9
$SPLINESEGS
 70
     8
  9
$ATTDIA
 70
     0
  9
$ATTREQ
 70
     1
  9
$HANDLING
 70
     1
  9
$HANDSEED
  5
FE
  9
$SURFTAB1
 70
     6
  9
$SURFTAB2
 70
     6
  9
$SURFTYPE
 70
     6
  9
$SURFU
 70
     6
  9
$SURFV
 70
     6
  9
$UCSNAME
  2

  9
$UCSORG
 10
0.0
 20
0.0
 30
0.0
  9
$UCSXDIR
 10
1.0
 20
0.0
 30
0.0
  9
$UCSYDIR
 10
0.0
 20
1.0
 30
0.0
  9
$PUCSNAME
  2

  9
$PUCSORG
 10
0.0
 20
0.0
 30
0.0
  9
$PUCSXDIR
 10
1.0
 20
0.0
 30
0.0
  9
$PUCSYDIR
 10
0.0
 20
1.0
 30
0.0
  9
$USERI1
 70
     0
  9
$USERI2
 70
     0
  9
$USERI3
 70
     0
  9
$USERI4
 70
     0
  9
$USERI5
 70
     0
  9
$USERR1
 40
0.0
  9
$USERR2
 40
0.0
  9
$USERR3
 40
0.0
  9
$USERR4
 40
0.0
  9
$USERR5
 40
0.0
  9
$WORLDVIEW
 70
     1
  9
$SHADEDGE
 70
     3
  9
$SHADEDIF
 70
    70
  9
$TILEMODE
 70
     1
  9
$MAXACTVP
 70
    64
  9
$PLIMCHECK
 70
     0
  9
$PEXTMIN
 10
0.0
 20
0.0
 30
0.0
  9
$PEXTMAX
 10
0.0
 20
0.0
 30
0.0
  9
$PLIMMIN
 10
0.0
 20
0.0
  9
$PLIMMAX
 10
12.0
 20
9.0
  9
$UNITMODE
 70
     0
  9
$VISRETAIN
 70
     1
  9
$PLINEGEN
 70
     0
  9
$PSLTSCALE
 70
     1
  0
ENDSEC
  0
SECTION
  2
TABLES
  0
TABLE
  2
VPORT
 70
     1
  0
VPORT
  2
*ACTIVE
 70
     0
 10
0.0
 20
0.0
 11
1.0
 21
1.0
 12
4057.36668663845
 22
910.8708631875059
 13
0.0
 23
0.0
 14
0.5
 24
0.5
 15
0.5
 25
0.5
 16
0.0
 26
0.0
 36
1.0
 17
0.0
 27
0.0
 37
0.0
 40
5526.851416340817
 41
1.333333333333333
 42
50.0
 43
0.0
 44
0.0
 50
0.0
 51
0.0
 71
    16
 72
   100
 73
     0
 74
     1
 75
     0
 76
     0
 77
     0
 78
     0
  0
ENDTAB
  0
TABLE
  2
LTYPE
 70
     1
  0
LTYPE
  2
CONTINUOUS
 70
     0
  3
CONTINUOUS
 72
    65
 73
     0
 40
0.0
  0
ENDTAB
  0
TABLE
  2
LAYER
 70
     2
  0
LAYER
  2
0
 70
     0
 62
     7
  6
CONTINUOUS
  0
LAYER
  2
BEDIENRAUM
 70
     0
 62
     2
  6
CONTINUOUS
  0
ENDTAB
  0
TABLE
  2
STYLE
 70
     1
  0
STYLE
  2
STANDARD
 70
     0
 40
0.0
 41
1.0
 50
0.0
 71
     0
 42
2.5
  3
txt
  4

  0
ENDTAB
  0
TABLE
  2
VIEW
 70
     0
  0
ENDTAB
  0
TABLE
  2
UCS
 70
     0
  0
ENDTAB
  0
TABLE
  2
APPID
 70
     1
  0
APPID
  2
ACAD
 70
     0
  0
ENDTAB
  0
TABLE
  2
DIMSTYLE
 70
     1
  0
DIMSTYLE
  2
STANDARD
 70
     0
  3

  4

  5

  6

  7

 40
1.0
 41
0.18
 42
0.0625
 43
0.38
 44
0.18
 45
0.0
 46
0.0
 47
0.0
 48
0.0
140
0.18
141
0.09
142
0.0
143
25.4
144
1.0
145
0.0
146
1.0
147
0.09
 71
     0
 72
     0
 73
     1
 74
     1
 75
     0
 76
     0
 77
     0
 78
     0
170
     0
171
     2
172
     0
173
     0
174
     0
175
     0
176
     0
177
     0
178
     0
  0
ENDTAB
  0
ENDSEC
  0
SECTION
  2
BLOCKS
  0
BLOCK
  8
0
  2
$MODEL_SPACE
 70
     0
 10
0.0
 20
0.0
 30
0.0
  3
$MODEL_SPACE
  1

  0
ENDBLK
  5
21
  8
0
  0
BLOCK
 67
     1
  8
0
  2
$PAPER_SPACE
 70
     0
 10
0.0
 20
0.0
 30
0.0
  3
$PAPER_SPACE
  1

  0
ENDBLK
  5
76
 67
     1
  8
0
  0
BLOCK
  8
0
  2
NRE_KLARIL_067
 70
     0
 10
0.0
 20
0.0
 30
0.0
  3
NRE_KLARIL_067
  1

  0
LINE
  5
9F
  8
BEDIENRAUM
 10
0.0
 20
-200.0
 30
0.0
 11
0.0
 21
-900.0
 31
0.0
  0
LINE
  5
A0
  8
BEDIENRAUM
 10
0.0
 20
-900.0
 30
0.0
 11
3600.0
 21
-900.0
 31
0.0
  0
LINE
  5
A1
  8
BEDIENRAUM
 10
3600.0
 20
-900.0
 30
0.0
 11
3600.0
 21
-200.0
 31
0.0
  0
TEXT
  5
A2
  8
0
 10
987.9555954262451
 20
-588.3835241330585
 30
0.0
 40
100.0
  1
Tettnang (Würth.)
  0
LINE
  5
A3
  8
0
 10
0.0
 20
-200.0
 30
0.0
 11
3600.0
 21
-200.0
 31
0.0
  0
LINE
  5
A4
  8
0
 10
3600.0
 20
-200.0
 30
0.0
 11
3600.0
 21
200.0
 31
0.0
  0
LINE
  5
A5
  8
0
 10
3600.0
 20
200.0
 30
0.0
 11
0.0
 21
200.0
 31
0.0
  0
LINE
  5
A6
  8
0
 10
0.0
 20
200.0
 30
0.0
 11
0.0
 21
-200.0
 31
0.0
  0
TEXT
  5
A7
  8
0
 10
862.7098253405093
 20
130.2007243103137
 30
0.0
 40
50.0
  1
3600
  0
TEXT
  5
A8
  8
0
 10
336.7649795404277
 20
-72.43819236213949
 30
0.0
 40
50.0
  1
KlaRi
  0
TEXT
  5
A9
  8
0
 10
302.2758937773424
 20
-135.3744802509812
 30
0.0
 40
50.0
  1
NRE-67
  0
TEXT
  5
AA
  8
0
 62
     2
 10
322.4155059017721
 20
-185.7235105620543
 30
0.0
 40
25.0
  1
FJ 04/2008
  0
POLYLINE
  5
AB
  8
0
 66
     1
 10
0.0
 20
0.0
 30
0.0
 40
9.0
 41
9.0
  0
VERTEX
  5
CC
  8
0
 10
3520.0
 20
0.0
 30
0.0
  0
VERTEX
  5
CD
  8
0
 10
3120.0
 20
0.0
 30
0.0
  0
SEQEND
  5
CB
  8
0
  0
POLYLINE
  5
AC
  8
0
 66
     1
 10
0.0
 20
0.0
 30
0.0
 40
9.0
 41
9.0
  0
VERTEX
  5
CF
  8
0
 10
1480.0
 20
0.0
 30
0.0
  0
VERTEX
  5
D0
  8
0
 10
1880.0
 20
0.0
 30
0.0
  0
VERTEX
  5
D1
  8
0
 10
2300.0
 20
-30.0
 30
0.0
  0
SEQEND
  5
CE
  8
0
  0
POLYLINE
  5
AD
  8
0
 66
     1
 10
0.0
 20
0.0
 30
0.0
 40
9.0
 41
9.0
  0
VERTEX
  5
D3
  8
0
 10
3120.0
 20
0.0
 30
0.0
  0
VERTEX
  5
D4
  8
0
 10
2700.0
 20
-30.0
 30
0.0
  0
VERTEX
  5
D5
  8
0
 10
2300.0
 20
-30.0
 30
0.0
  0
VERTEX
  5
D6
  8
0
 10
1500.0
 20
-30.0
 30
0.0
  0
VERTEX
  5
D7
  8
0
 10
1080.0
 20
-60.0
 30
0.0
  0
VERTEX
  5
D8
  8
0
 10
660.0
 20
-60.0
 30
0.0
  0
SEQEND
  5
D2
  8
0
  0
POLYLINE
  5
AE
  8
0
 66
     1
 10
0.0
 20
0.0
 30
0.0
 40
9.0
 41
9.0
  0
VERTEX
  5
DA
  8
0
 10
1500.0
 20
-30.0
 30
0.0
  0
VERTEX
  5
DB
  8
0
 10
660.0
 20
-30.0
 30
0.0
  0
SEQEND
  5
D9
  8
0
  0
POLYLINE
  5
AF
  8
0
 66
     1
 10
0.0
 20
0.0
 30
0.0
 40
9.0
 41
9.0
  0
VERTEX
  5
DD
  8
0
 10
1880.0
 20
0.0
 30
0.0
  0
VERTEX
  5
DE
  8
0
 10
3120.0
 20
0.0
 30
0.0
  0
SEQEND
  5
DC
  8
0
  0
POLYLINE
  5
B0
  8
0
 66
     1
 10
0.0
 20
0.0
 30
0.0
 40
9.0
 41
9.0
  0
VERTEX
  5
E0
  8
0
 10
2700.0
 20
-30.0
 30
0.0
  0
VERTEX
  5
E1
  8
0
 10
3500.0
 20
-30.0
 30
0.0
  0
SEQEND
  5
DF
  8
0
  0
POLYLINE
  5
B1
  8
0
 66
     1
 10
0.0
 20
0.0
 30
0.0
 40
9.0
 41
9.0
  0
VERTEX
  5
E3
  8
0
 10
3100.0
 20
30.0
 30
0.0
  0
VERTEX
  5
E4
  8
0
 10
3500.0
 20
30.0
 30
0.0
  0
SEQEND
  5
E2
  8
0
  0
POLYLINE
  5
B2
  8
0
 66
     1
 10
0.0
 20
0.0
 30
0.0
 40
9.0
 41
9.0
  0
VERTEX
  5
E6
  8
0
 10
1900.0
 20
30.0
 30
0.0
  0
VERTEX
  5
E7
  8
0
 10
1500.0
 20
30.0
 30
0.0
  0
VERTEX
  5
E8
  8
0
 10
1080.0
 20
60.0
 30
0.0
  0
VERTEX
  5
E9
  8
0
 10
330.0
 20
60.0
 30
0.0
  0
VERTEX
  5
EA
  8
0
 10
130.0
 20
60.0
 30
0.0
  0
SEQEND
  5
E5
  8
0
  0
POLYLINE
  5
B3
  8
0
 66
     1
 10
0.0
 20
0.0
 30
0.0
 40
9.0
 41
9.0
  0
VERTEX
  5
EC
  8
0
 10
1080.0
 20
60.0
 30
0.0
  0
VERTEX
  5
ED
  8
0
 10
1920.0
 20
120.0
 30
0.0
  0
VERTEX
  5
EE
  8
0
 10
2340.0
 20
150.0
 30
0.0
  0
VERTEX
  5
EF
  8
0
 10
3240.0
 20
150.0
 30
0.0
  0
SEQEND
  5
EB
  8
0
  0
POLYLINE
  5
B4
  8
0
 66
     1
 10
0.0
 20
0.0
 30
0.0
 40
9.0
 41
9.0
  0
VERTEX
  5
F1
  8
0
 10
1920.0
 20
120.0
 30
0.0
  0
VERTEX
  5
F2
  8
0
 10
3140.0
 20
120.0
 30
0.0
  0
SEQEND
  5
F0
  8
0
  0
POLYLINE
  5
B5
  8
0
 66
     1
 10
0.0
 20
0.0
 30
0.0
 40
9.0
 41
9.0
  0
VERTEX
  5
F4
  8
0
 10
0.0
 20
0.0
 30
0.0
  0
VERTEX
  5
F5
  8
0
 10
1480.0
 20
0.0
 30
0.0
  0
VERTEX
  5
F6
  8
0
 10
1900.0
 20
30.0
 30
0.0
  0
SEQEND
  5
F3
  8
0
  0
POLYLINE
  5
B6
  8
0
 66
     1
 10
0.0
 20
0.0
 30
0.0
 40
9.0
 41
9.0
  0
VERTEX
  5
F8
  8
0
 10
1900.0
 20
30.0
 30
0.0
  0
VERTEX
  5
F9
  8
0
 10
2300.0
 20
30.0
 30
0.0
  0
VERTEX
  5
FA
  8
0
 10
2720.0
 20
0.0
 30
0.0
  0
SEQEND
  5
F7
  8
0
  0
POLYLINE
  5
B7
  8
0
 66
     1
 10
0.0
 20
0.0
 30
0.0
 40
9.0
 41
9.0
  0
VERTEX
  5
FC
  8
0
 10
2300.0
 20
30.0
 30
0.0
  0
VERTEX
  5
FD
  8
0
 10
3500.0
 20
30.0
 30
0.0
  0
SEQEND
  5
FB
  8
0
  0
ENDBLK
  5
C1
  8
0
  0
ENDSEC
  0
SECTION
  2
ENTITIES
  0
INSERT
  5
BA
  8
0
  2
NRE_KLARIL_067
 10
1071.596381258928
 20
347.0684916929685
 30
0.0
  0
ENDSEC
  0
EOF
