  0
SECTION
  2
HEADER
  9
$ACADVER
  1
AC1009
  9
$DWGCODEPAGE
  3
ansi_1252
  9
$INSBASE
 10
0.0
 20
0.0
 30
0.0
  9
$EXTMIN
 10
240.5161710867168
 20
-353.2339830284248
 30
0.0
  9
$EXTMAX
 10
840.5161710867196
 20
46.7660169715752
 30
0.0
  9
$LIMMIN
 10
0.0
 20
0.0
  9
$LIMMAX
 10
420.0
 20
297.0
  9
$ORTHOMODE
 70
     0
  9
$REGENMODE
 70
     1
  9
$FILLMODE
 70
     1
  9
$QTEXTMODE
 70
     0
  9
$MIRRTEXT
 70
     0
  9
$DRAGMODE
 70
     2
  9
$LTSCALE
 40
1.0
  9
$OSMODE
 70
    37
  9
$ATTMODE
 70
     1
  9
$TEXTSIZE
 40
2.5
  9
$TRACEWID
 40
1.0
  9
$TEXTSTYLE
  7
STANDARD
  9
$CLAYER
  8
0
  9
$CELTYPE
  6
BYLAYER
  9
$CECOLOR
 62
   256
  9
$DIMSCALE
 40
1.0
  9
$DIMASZ
 40
2.5
  9
$DIMEXO
 40
0.625
  9
$DIMDLI
 40
3.75
  9
$DIMRND
 40
0.0
  9
$DIMDLE
 40
0.0
  9
$DIMEXE
 40
1.25
  9
$DIMTP
 40
0.0
  9
$DIMTM
 40
0.0
  9
$DIMTXT
 40
50.0
  9
$DIMCEN
 40
2.5
  9
$DIMTSZ
 40
0.0
  9
$DIMTOL
 70
     0
  9
$DIMLIM
 70
     0
  9
$DIMTIH
 70
     0
  9
$DIMTOH
 70
     0
  9
$DIMSE1
 70
     0
  9
$DIMSE2
 70
     0
  9
$DIMTAD
 70
     1
  9
$DIMZIN
 70
     8
  9
$DIMBLK
  1

  9
$DIMASO
 70
     1
  9
$DIMSHO
 70
     1
  9
$DIMPOST
  1

  9
$DIMAPOST
  1

  9
$DIMALT
 70
     0
  9
$DIMALTD
 70
     3
  9
$DIMALTF
 40
0.03937007874016
  9
$DIMLFAC
 40
1.0
  9
$DIMTOFL
 70
     1
  9
$DIMTVP
 40
0.0
  9
$DIMTIX
 70
     0
  9
$DIMSOXD
 70
     0
  9
$DIMSAH
 70
     0
  9
$DIMBLK1
  1

  9
$DIMBLK2
  1

  9
$DIMSTYLE
  2
STANDARD
  9
$DIMCLRD
 70
     0
  9
$DIMCLRE
 70
     0
  9
$DIMCLRT
 70
     0
  9
$DIMTFAC
 40
1.0
  9
$DIMGAP
 40
0.625
  9
$LUNITS
 70
     2
  9
$LUPREC
 70
     4
  9
$SKETCHINC
 40
1.0
  9
$FILLETRAD
 40
0.0
  9
$AUNITS
 70
     0
  9
$AUPREC
 70
     0
  9
$MENU
  1
.
  9
$ELEVATION
 40
0.0
  9
$PELEVATION
 40
0.0
  9
$THICKNESS
 40
0.0
  9
$LIMCHECK
 70
     0
  9
$CHAMFERA
 40
0.0
  9
$CHAMFERB
 40
0.0
  9
$SKPOLY
 70
     0
  9
$TDCREATE
 40
2453353.800459155
  9
$TDUPDATE
 40
2454589.141497778
  9
$TDINDWG
 40
4895786.051922963
  9
$TDUSRTIMER
 40
9763088.046677036
  9
$USRTIMER
 70
     1
  9
$ANGBASE
 50
0.0
  9
$ANGDIR
 70
     0
  9
$PDMODE
 70
     0
  9
$PDSIZE
 40
0.0
  9
$PLINEWID
 40
9.0
  9
$COORDS
 70
     1
  9
$SPLFRAME
 70
     0
  9
$SPLINETYPE
 70
     6
  9
$SPLINESEGS
 70
     8
  9
$ATTDIA
 70
     0
  9
$ATTREQ
 70
     1
  9
$HANDLING
 70
     1
  9
$HANDSEED
  5
109
  9
$SURFTAB1
 70
     6
  9
$SURFTAB2
 70
     6
  9
$SURFTYPE
 70
     6
  9
$SURFU
 70
     6
  9
$SURFV
 70
     6
  9
$UCSNAME
  2

  9
$UCSORG
 10
0.0
 20
0.0
 30
0.0
  9
$UCSXDIR
 10
1.0
 20
0.0
 30
0.0
  9
$UCSYDIR
 10
0.0
 20
1.0
 30
0.0
  9
$PUCSNAME
  2

  9
$PUCSORG
 10
0.0
 20
0.0
 30
0.0
  9
$PUCSXDIR
 10
1.0
 20
0.0
 30
0.0
  9
$PUCSYDIR
 10
0.0
 20
1.0
 30
0.0
  9
$USERI1
 70
     0
  9
$USERI2
 70
     0
  9
$USERI3
 70
     0
  9
$USERI4
 70
     0
  9
$USERI5
 70
     0
  9
$USERR1
 40
0.0
  9
$USERR2
 40
0.0
  9
$USERR3
 40
0.0
  9
$USERR4
 40
0.0
  9
$USERR5
 40
0.0
  9
$WORLDVIEW
 70
     1
  9
$SHADEDGE
 70
     3
  9
$SHADEDIF
 70
    70
  9
$TILEMODE
 70
     1
  9
$MAXACTVP
 70
    64
  9
$PLIMCHECK
 70
     0
  9
$PEXTMIN
 10
0.0
 20
0.0
 30
0.0
  9
$PEXTMAX
 10
0.0
 20
0.0
 30
0.0
  9
$PLIMMIN
 10
0.0
 20
0.0
  9
$PLIMMAX
 10
12.0
 20
9.0
  9
$UNITMODE
 70
     0
  9
$VISRETAIN
 70
     1
  9
$PLINEGEN
 70
     0
  9
$PSLTSCALE
 70
     1
  0
ENDSEC
  0
SECTION
  2
TABLES
  0
TABLE
  2
VPORT
 70
     1
  0
VPORT
  2
*ACTIVE
 70
     0
 10
0.0
 20
0.0
 11
1.0
 21
1.0
 12
706.2997533036649
 22
-106.5221624622552
 13
0.0
 23
0.0
 14
0.5
 24
0.5
 15
0.5
 25
0.5
 16
0.0
 26
0.0
 36
1.0
 17
0.0
 27
0.0
 37
0.0
 40
928.8979175444008
 41
1.333333333333333
 42
50.0
 43
0.0
 44
0.0
 50
0.0
 51
0.0
 71
    16
 72
   100
 73
     0
 74
     1
 75
     0
 76
     0
 77
     0
 78
     0
  0
ENDTAB
  0
TABLE
  2
LTYPE
 70
     1
  0
LTYPE
  2
CONTINUOUS
 70
     0
  3
CONTINUOUS
 72
    65
 73
     0
 40
0.0
  0
ENDTAB
  0
TABLE
  2
LAYER
 70
     1
  0
LAYER
  2
0
 70
     0
 62
     7
  6
CONTINUOUS
  0
ENDTAB
  0
TABLE
  2
STYLE
 70
     1
  0
STYLE
  2
STANDARD
 70
     0
 40
0.0
 41
1.0
 50
0.0
 71
     0
 42
2.5
  3
txt
  4

  0
ENDTAB
  0
TABLE
  2
VIEW
 70
     0
  0
ENDTAB
  0
TABLE
  2
UCS
 70
     0
  0
ENDTAB
  0
TABLE
  2
APPID
 70
     1
  0
APPID
  2
ACAD
 70
     0
  0
ENDTAB
  0
TABLE
  2
DIMSTYLE
 70
     1
  0
DIMSTYLE
  2
STANDARD
 70
     0
  3

  4

  5

  6

  7

 40
1.0
 41
0.18
 42
0.0625
 43
0.38
 44
0.18
 45
0.0
 46
0.0
 47
0.0
 48
0.0
140
0.18
141
0.09
142
0.0
143
25.4
144
1.0
145
0.0
146
1.0
147
0.09
 71
     0
 72
     0
 73
     1
 74
     1
 75
     0
 76
     0
 77
     0
 78
     0
170
     0
171
     2
172
     0
173
     0
174
     0
175
     0
176
     0
177
     0
178
     0
  0
ENDTAB
  0
ENDSEC
  0
SECTION
  2
BLOCKS
  0
BLOCK
  8
0
  2
$MODEL_SPACE
 70
     0
 10
0.0
 20
0.0
 30
0.0
  3
$MODEL_SPACE
  1

  0
ENDBLK
  5
21
  8
0
  0
BLOCK
 67
     1
  8
0
  2
$PAPER_SPACE
 70
     0
 10
0.0
 20
0.0
 30
0.0
  3
$PAPER_SPACE
  1

  0
ENDBLK
  5
76
 67
     1
  8
0
  0
BLOCK
  8
0
  2
_HP012
 70
     0
 10
0.0
 20
0.0
 30
0.0
  3
_HP012
  1

  0
LINE
  5
40
  8
0
 10
0.0
 20
0.0
 30
0.0
 11
0.0
 21
150.0
 31
0.0
  0
POLYLINE
  5
41
  8
0
 66
     1
 10
0.0
 20
0.0
 30
0.0
  0
VERTEX
  5
C6
  8
0
 10
0.0
 20
150.0
 30
0.0
  0
VERTEX
  5
C7
  8
0
 10
75.0
 20
150.0
 30
0.0
  0
VERTEX
  5
C8
  8
0
 10
75.0
 20
125.0
 30
0.0
  0
VERTEX
  5
C9
  8
0
 10
0.0
 20
125.0
 30
0.0
  0
VERTEX
  5
CA
  8
0
 10
0.0
 20
150.0
 30
0.0
  0
SEQEND
  5
C5
  8
0
  0
INSERT
  5
42
  8
0
  6
CONTINUOUS
  2
*U4
 10
0.0
 20
0.0
 30
0.0
1001
ACAD
1002
{
1000
R14_HATCH_DATA
1000
42
1011
1.0
1021
0.0
1031
0.0
1021
0.0
1031
0.0
1011
0.0
1021
1.0
1031
0.0
1021
1.0
1031
0.0
1011
0.0
1021
0.0
1031
1.0
1021
0.0
1031
1.0
1040
0.0
1010
0.0
1020
0.0
1030
1.0
1020
0.0
1030
1.0
1000
SOLID
1070
     1
1070
     1
1071
        1
1071
        1
1071
        4
1070
     1
1040
0.0
1040
150.0
1040
75.0
1040
150.0
1070
     1
1040
75.0
1040
150.0
1040
75.0
1040
125.0
1070
     1
1040
75.0
1040
125.0
1040
0.0
1040
125.0
1070
     1
1040
0.0
1040
125.0
1040
0.0
1040
150.0
1071
        1
1005
41
1070
     0
1070
     1
1071
        1
1040
0.0
1040
0.0
1040
0.0
1002
}
  0
POLYLINE
  5
43
  8
0
 66
     1
 10
0.0
 20
0.0
 30
0.0
  0
VERTEX
  5
D1
  8
0
 10
0.0
 20
100.0
 30
0.0
  0
VERTEX
  5
D2
  8
0
 10
25.0
 20
100.0
 30
0.0
  0
VERTEX
  5
D3
  8
0
 10
25.0
 20
50.0
 30
0.0
  0
VERTEX
  5
D4
  8
0
 10
0.0
 20
50.0
 30
0.0
  0
VERTEX
  5
D5
  8
0
 10
0.0
 20
100.0
 30
0.0
  0
SEQEND
  5
D0
  8
0
  0
INSERT
  5
44
  8
0
  6
CONTINUOUS
  2
*U5
 10
0.0
 20
0.0
 30
0.0
1001
ACAD
1002
{
1000
R14_HATCH_DATA
1000
44
1011
1.0
1021
0.0
1031
0.0
1021
0.0
1031
0.0
1011
0.0
1021
1.0
1031
0.0
1021
1.0
1031
0.0
1011
0.0
1021
0.0
1031
1.0
1021
0.0
1031
1.0
1040
0.0
1010
0.0
1020
0.0
1030
1.0
1020
0.0
1030
1.0
1000
SOLID
1070
     1
1070
     1
1071
        1
1071
        1
1071
        4
1070
     1
1040
0.0
1040
100.0
1040
25.0
1040
100.0
1070
     1
1040
25.0
1040
100.0
1040
25.0
1040
50.0
1070
     1
1040
25.0
1040
50.0
1040
0.0
1040
50.0
1070
     1
1040
0.0
1040
50.0
1040
0.0
1040
100.0
1071
        1
1005
43
1070
     0
1070
     1
1071
        1
1040
0.0
1040
0.0
1040
0.0
1002
}
  0
ENDBLK
  5
B7
  8
0
  0
BLOCK
  8
0
  2
_V01
 70
     0
 10
0.0
 20
0.0
 30
0.0
  3
_V01
  1

  0
CIRCLE
  5
49
  8
0
 10
0.0
 20
100.0
 30
0.0
 40
20.0
  0
CIRCLE
  5
4A
  8
0
 10
0.0
 20
100.0
 30
0.0
 40
15.0
  0
INSERT
  5
4B
  8
0
  6
CONTINUOUS
  2
*U6
 10
0.0
 20
0.0
 30
0.0
1001
ACAD
1002
{
1000
R14_HATCH_DATA
1000
4B
1011
1.0
1021
0.0
1031
0.0
1021
0.0
1031
0.0
1011
0.0
1021
1.0
1031
0.0
1021
1.0
1031
0.0
1011
0.0
1021
0.0
1031
1.0
1021
0.0
1031
1.0
1040
0.0
1010
0.0
1020
0.0
1030
1.0
1020
0.0
1030
1.0
1000
SOLID
1070
     1
1070
     1
1071
        1
1071
        1
1071
        1
1070
     2
1040
0.0
1040
100.0
1040
15.0
1040
0.0
1040
6.283185307179586
1070
     1
1071
        1
1005
4A
1070
     0
1070
     1
1071
        1
1040
0.0
1040
0.0
1040
0.0
1002
}
  0
LINE
  5
4C
  8
0
 10
0.0
 20
0.0
 30
0.0
 11
0.0
 21
100.0
 31
0.0
  0
POLYLINE
  5
4D
  8
0
 66
     1
 10
0.0
 20
0.0
 30
0.0
 70
     1
  0
VERTEX
  5
FD
  8
0
 10
0.0
 20
40.0
 30
0.0
  0
VERTEX
  5
FE
  8
0
 10
10.0
 20
40.0
 30
0.0
  0
VERTEX
  5
FF
  8
0
 10
10.0
 20
70.0
 30
0.0
  0
VERTEX
  5
100
  8
0
 10
0.0
 20
70.0
 30
0.0
  0
SEQEND
  5
FC
  8
0
  0
POLYLINE
  5
4E
  8
0
 66
     1
 10
0.0
 20
0.0
 30
0.0
 70
     1
  0
VERTEX
  5
102
  8
0
 10
-10.0
 20
20.0
 30
0.0
  0
VERTEX
  5
103
  8
0
 10
0.0
 20
20.0
 30
0.0
  0
VERTEX
  5
104
  8
0
 10
0.0
 20
50.0
 30
0.0
  0
VERTEX
  5
105
  8
0
 10
-10.0
 20
50.0
 30
0.0
  0
SEQEND
  5
101
  8
0
  0
ENDBLK
  5
B9
  8
0
  0
BLOCK
  8
0
  2
NRE_KLARI_066
 70
     0
 10
0.0
 20
0.0
 30
0.0
  3
NRE_KLARI_066
  1

  0
LINE
  5
A3
  8
0
 10
0.0
 20
200.0
 30
0.0
 11
600.0
 21
200.0
 31
0.0
  0
LINE
  5
A4
  8
0
 10
600.0
 20
200.0
 30
0.0
 11
600.0
 21
-200.0
 31
0.0
  0
LINE
  5
A5
  8
0
 10
600.0
 20
-200.0
 30
0.0
 11
0.0
 21
-200.0
 31
0.0
  0
LINE
  5
A6
  8
0
 10
0.0
 20
-200.0
 30
0.0
 11
0.0
 21
200.0
 31
0.0
  0
POLYLINE
  5
A7
  8
0
 66
     1
 10
0.0
 20
0.0
 30
0.0
 40
9.0
 41
9.0
  0
VERTEX
  5
107
  8
0
 10
0.0
 20
0.0
 30
0.0
  0
VERTEX
  5
108
  8
0
 10
600.0000000000027
 20
0.0
 30
0.0
  0
SEQEND
  5
106
  8
0
  0
INSERT
  5
A8
  8
0
  2
_HP012
 10
163.1336184000966
 20
16.94945895742967
 30
0.0
  0
INSERT
  5
A9
  8
0
  2
_V01
 10
265.9261828324989
 20
15.60034516384178
 30
0.0
  0
TEXT
  5
AA
  8
0
 62
     2
 10
204.8029374368553
 20
-174.6128163450549
 30
0.0
 40
25.0
  1
FJ 04/2008
  0
TEXT
  5
AB
  8
0
 10
219.1524110755108
 20
-61.32749814514011
 30
0.0
 40
50.0
  1
KlaRi
  0
TEXT
  5
AC
  8
0
 10
184.6633253124255
 20
-124.2637860339817
 30
0.0
 40
50.0
  1
NRE-66
  0
TEXT
  5
AD
  8
0
 10
341.1606836683013
 20
120.2458372008675
 30
0.0
 40
50.0
  1
600
  0
ENDBLK
  5
BB
  8
0
  0
BLOCK
  8
0
  2
*U4
 70
     1
 10
0.0
 20
0.0
 30
0.0
  3
*U4
  1

  0
SOLID
  5
CC
  8
0
  6
CONTINUOUS
 10
0.0
 20
125.0
 30
0.0
 11
0.0
 21
150.0
 31
0.0
 12
75.0
 22
125.0
 32
0.0
 13
75.0
 23
125.0
 33
0.0
  0
SOLID
  5
CD
  8
0
  6
CONTINUOUS
 10
75.0
 20
125.0
 30
0.0
 11
0.0
 21
150.0
 31
0.0
 12
75.0
 22
150.0
 32
0.0
 13
75.0
 23
150.0
 33
0.0
  0
ENDBLK
  5
CF
  8
0
  0
BLOCK
  8
0
  2
*U5
 70
     1
 10
0.0
 20
0.0
 30
0.0
  3
*U5
  1

  0
SOLID
  5
D7
  8
0
  6
CONTINUOUS
 10
0.0
 20
50.0
 30
0.0
 11
0.0
 21
100.0
 31
0.0
 12
-25.0
 22
50.0
 32
0.0
 13
-25.0
 23
50.0
 33
0.0
210
0.0
220
0.0
230
-1.0
  0
SOLID
  5
D8
  8
0
  6
CONTINUOUS
 10
-25.0
 20
50.0
 30
0.0
 11
0.0
 21
100.0
 31
0.0
 12
-25.0
 22
100.0
 32
0.0
 13
-25.0
 23
100.0
 33
0.0
210
0.0
220
0.0
230
-1.0
  0
ENDBLK
  5
DA
  8
0
  0
BLOCK
  8
0
  2
*U6
 70
     1
 10
0.0
 20
0.0
 30
0.0
  3
*U6
  1

  0
SOLID
  5
DC
  8
0
  6
CONTINUOUS
 10
-14.71177920604845
 20
97.07364516975808
 30
0.0
 11
-15.0
 21
100.0
 31
0.0
 12
-14.71177920604845
 22
102.9263548302419
 32
0.0
 13
-14.71177920604845
 23
102.9263548302419
 33
0.0
  0
SOLID
  5
DD
  8
0
  6
CONTINUOUS
 10
-14.71177920604845
 20
97.07364516975808
 30
0.0
 11
-14.71177920604845
 21
102.9263548302419
 31
0.0
 12
-13.8581929876693
 22
94.25974851452365
 32
0.0
 13
-13.8581929876693
 23
94.25974851452365
 33
0.0
  0
SOLID
  5
DE
  8
0
  6
CONTINUOUS
 10
-13.8581929876693
 20
94.25974851452365
 30
0.0
 11
-14.71177920604845
 21
102.9263548302419
 31
0.0
 12
-13.8581929876693
 22
105.7402514854764
 32
0.0
 13
-13.8581929876693
 23
105.7402514854764
 33
0.0
  0
SOLID
  5
DF
  8
0
  6
CONTINUOUS
 10
-13.8581929876693
 20
94.25974851452365
 30
0.0
 11
-13.8581929876693
 21
105.7402514854764
 31
0.0
 12
-12.47204418453818
 22
91.66644650470597
 32
0.0
 13
-12.47204418453818
 23
91.66644650470597
 33
0.0
  0
SOLID
  5
E0
  8
0
  6
CONTINUOUS
 10
-12.47204418453818
 20
91.66644650470597
 30
0.0
 11
-13.8581929876693
 21
105.7402514854764
 31
0.0
 12
-12.47204418453818
 22
108.333553495294
 32
0.0
 13
-12.47204418453818
 23
108.333553495294
 33
0.0
  0
SOLID
  5
E1
  8
0
  6
CONTINUOUS
 10
-12.47204418453818
 20
91.66644650470597
 30
0.0
 11
-12.47204418453818
 21
108.333553495294
 31
0.0
 12
-10.60660171779821
 22
89.39339828220179
 32
0.0
 13
-10.60660171779821
 23
89.39339828220179
 33
0.0
  0
SOLID
  5
E2
  8
0
  6
CONTINUOUS
 10
-10.60660171779821
 20
89.39339828220179
 30
0.0
 11
-12.47204418453818
 21
108.333553495294
 31
0.0
 12
-10.60660171779821
 22
110.6066017177982
 32
0.0
 13
-10.60660171779821
 23
110.6066017177982
 33
0.0
  0
SOLID
  5
E3
  8
0
  6
CONTINUOUS
 10
-10.60660171779821
 20
89.39339828220179
 30
0.0
 11
-10.60660171779821
 21
110.6066017177982
 31
0.0
 12
-8.333553495294032
 22
87.52795581546182
 32
0.0
 13
-8.333553495294032
 23
87.52795581546182
 33
0.0
  0
SOLID
  5
E4
  8
0
  6
CONTINUOUS
 10
-8.333553495294032
 20
87.52795581546182
 30
0.0
 11
-10.60660171779821
 21
110.6066017177982
 31
0.0
 12
-8.333553495294032
 22
112.4720441845382
 32
0.0
 13
-8.333553495294032
 23
112.4720441845382
 33
0.0
  0
SOLID
  5
E5
  8
0
  6
CONTINUOUS
 10
-8.333553495294032
 20
87.52795581546182
 30
0.0
 11
-8.333553495294032
 21
112.4720441845382
 31
0.0
 12
-5.740251485476346
 22
86.1418070123307
 32
0.0
 13
-5.740251485476346
 23
86.1418070123307
 33
0.0
  0
SOLID
  5
E6
  8
0
  6
CONTINUOUS
 10
-5.740251485476346
 20
86.1418070123307
 30
0.0
 11
-8.333553495294032
 21
112.4720441845382
 31
0.0
 12
-5.740251485476346
 22
113.8581929876693
 32
0.0
 13
-5.740251485476346
 23
113.8581929876693
 33
0.0
  0
SOLID
  5
E7
  8
0
  6
CONTINUOUS
 10
-5.740251485476346
 20
86.1418070123307
 30
0.0
 11
-5.740251485476346
 21
113.8581929876693
 31
0.0
 12
-2.926354830241924
 22
85.28822079395155
 32
0.0
 13
-2.926354830241924
 23
85.28822079395155
 33
0.0
  0
SOLID
  5
E8
  8
0
  6
CONTINUOUS
 10
-2.926354830241924
 20
85.28822079395155
 30
0.0
 11
-5.740251485476346
 21
113.8581929876693
 31
0.0
 12
-2.926354830241924
 22
114.7117792060485
 32
0.0
 13
-2.926354830241924
 23
114.7117792060485
 33
0.0
  0
SOLID
  5
E9
  8
0
  6
CONTINUOUS
 10
-2.926354830241924
 20
85.28822079395155
 30
0.0
 11
-2.926354830241924
 21
114.7117792060485
 31
0.0
 12
-0.0000000000000017
 22
85.0
 32
0.0
 13
-0.0000000000000017
 23
85.0
 33
0.0
  0
SOLID
  5
EA
  8
0
  6
CONTINUOUS
 10
-0.0000000000000017
 20
85.0
 30
0.0
 11
-2.926354830241924
 21
114.7117792060485
 31
0.0
 12
-0.0000000000000017
 22
115.0
 32
0.0
 13
-0.0000000000000017
 23
115.0
 33
0.0
  0
SOLID
  5
EB
  8
0
  6
CONTINUOUS
 10
0.0000000000000017
 20
85.0
 30
0.0
 11
0.0000000000000017
 21
115.0
 31
0.0
 12
-2.926354830241921
 22
85.28822079395155
 32
0.0
 13
-2.926354830241921
 23
85.28822079395155
 33
0.0
210
0.0
220
0.0
230
-1.0
  0
SOLID
  5
EC
  8
0
  6
CONTINUOUS
 10
-2.926354830241921
 20
85.28822079395155
 30
0.0
 11
0.0000000000000017
 21
115.0
 31
0.0
 12
-2.926354830241921
 22
114.7117792060485
 32
0.0
 13
-2.926354830241921
 23
114.7117792060485
 33
0.0
210
0.0
220
0.0
230
-1.0
  0
SOLID
  5
ED
  8
0
  6
CONTINUOUS
 10
-2.926354830241921
 20
85.28822079395155
 30
0.0
 11
-2.926354830241921
 21
114.7117792060485
 31
0.0
 12
-5.740251485476343
 22
86.1418070123307
 32
0.0
 13
-5.740251485476343
 23
86.1418070123307
 33
0.0
210
0.0
220
0.0
230
-1.0
  0
SOLID
  5
EE
  8
0
  6
CONTINUOUS
 10
-5.740251485476343
 20
86.1418070123307
 30
0.0
 11
-2.926354830241921
 21
114.7117792060485
 31
0.0
 12
-5.740251485476343
 22
113.8581929876693
 32
0.0
 13
-5.740251485476343
 23
113.8581929876693
 33
0.0
210
0.0
220
0.0
230
-1.0
  0
SOLID
  5
EF
  8
0
  6
CONTINUOUS
 10
-5.740251485476343
 20
86.1418070123307
 30
0.0
 11
-5.740251485476343
 21
113.8581929876693
 31
0.0
 12
-8.333553495294028
 22
87.52795581546182
 32
0.0
 13
-8.333553495294028
 23
87.52795581546182
 33
0.0
210
0.0
220
0.0
230
-1.0
  0
SOLID
  5
F0
  8
0
  6
CONTINUOUS
 10
-8.333553495294028
 20
87.52795581546182
 30
0.0
 11
-5.740251485476343
 21
113.8581929876693
 31
0.0
 12
-8.333553495294028
 22
112.4720441845382
 32
0.0
 13
-8.333553495294028
 23
112.4720441845382
 33
0.0
210
0.0
220
0.0
230
-1.0
  0
SOLID
  5
F1
  8
0
  6
CONTINUOUS
 10
-8.333553495294028
 20
87.52795581546182
 30
0.0
 11
-8.333553495294028
 21
112.4720441845382
 31
0.0
 12
-10.60660171779821
 22
89.39339828220179
 32
0.0
 13
-10.60660171779821
 23
89.39339828220179
 33
0.0
210
0.0
220
0.0
230
-1.0
  0
SOLID
  5
F2
  8
0
  6
CONTINUOUS
 10
-10.60660171779821
 20
89.39339828220179
 30
0.0
 11
-8.333553495294028
 21
112.4720441845382
 31
0.0
 12
-10.60660171779821
 22
110.6066017177982
 32
0.0
 13
-10.60660171779821
 23
110.6066017177982
 33
0.0
210
0.0
220
0.0
230
-1.0
  0
SOLID
  5
F3
  8
0
  6
CONTINUOUS
 10
-10.60660171779821
 20
89.39339828220179
 30
0.0
 11
-10.60660171779821
 21
110.6066017177982
 31
0.0
 12
-12.47204418453817
 22
91.66644650470597
 32
0.0
 13
-12.47204418453817
 23
91.66644650470597
 33
0.0
210
0.0
220
0.0
230
-1.0
  0
SOLID
  5
F4
  8
0
  6
CONTINUOUS
 10
-12.47204418453817
 20
91.66644650470597
 30
0.0
 11
-10.60660171779821
 21
110.6066017177982
 31
0.0
 12
-12.47204418453817
 22
108.333553495294
 32
0.0
 13
-12.47204418453817
 23
108.333553495294
 33
0.0
210
0.0
220
0.0
230
-1.0
  0
SOLID
  5
F5
  8
0
  6
CONTINUOUS
 10
-12.47204418453817
 20
91.66644650470597
 30
0.0
 11
-12.47204418453817
 21
108.333553495294
 31
0.0
 12
-13.8581929876693
 22
94.25974851452365
 32
0.0
 13
-13.8581929876693
 23
94.25974851452365
 33
0.0
210
0.0
220
0.0
230
-1.0
  0
SOLID
  5
F6
  8
0
  6
CONTINUOUS
 10
-13.8581929876693
 20
94.25974851452365
 30
0.0
 11
-12.47204418453817
 21
108.333553495294
 31
0.0
 12
-13.8581929876693
 22
105.7402514854764
 32
0.0
 13
-13.8581929876693
 23
105.7402514854764
 33
0.0
210
0.0
220
0.0
230
-1.0
  0
SOLID
  5
F7
  8
0
  6
CONTINUOUS
 10
-13.8581929876693
 20
94.25974851452365
 30
0.0
 11
-13.8581929876693
 21
105.7402514854764
 31
0.0
 12
-14.71177920604845
 22
97.07364516975808
 32
0.0
 13
-14.71177920604845
 23
97.07364516975808
 33
0.0
210
0.0
220
0.0
230
-1.0
  0
SOLID
  5
F8
  8
0
  6
CONTINUOUS
 10
-14.71177920604845
 20
97.07364516975808
 30
0.0
 11
-13.8581929876693
 21
105.7402514854764
 31
0.0
 12
-14.71177920604845
 22
102.926354830242
 32
0.0
 13
-14.71177920604845
 23
102.926354830242
 33
0.0
210
0.0
220
0.0
230
-1.0
  0
SOLID
  5
F9
  8
0
  6
CONTINUOUS
 10
-14.71177920604845
 20
97.07364516975808
 30
0.0
 11
-14.71177920604845
 21
102.926354830242
 31
0.0
 12
-15.0
 22
100.0000000000001
 32
0.0
 13
-15.0
 23
100.0000000000001
 33
0.0
210
0.0
220
0.0
230
-1.0
  0
ENDBLK
  5
FB
  8
0
  0
ENDSEC
  0
SECTION
  2
ENTITIES
  0
INSERT
  5
B0
  8
0
  2
NRE_KLARI_066
 10
240.5161710867168
 20
-153.2339830284248
 30
0.0
  0
ENDSEC
  0
EOF
