  0
SECTION
  2
HEADER
  9
$ACADVER
  1
AC1015
  9
$ACADMAINTVER
 70
     6
  9
$DWGCODEPAGE
  3
ANSI_1252
  9
$INSBASE
 10
0.0
 20
0.0
 30
0.0
  9
$EXTMIN
 10
-101.6771613882993
 20
0.0
 30
0.0
  9
$EXTMAX
 10
3722.0
 20
488.4320775386416
 30
0.0
  9
$LIMMIN
 10
0.0
 20
0.0
  9
$LIMMAX
 10
420.0
 20
297.0
  9
$ORTHOMODE
 70
     0
  9
$REGENMODE
 70
     1
  9
$FILLMODE
 70
     1
  9
$QTEXTMODE
 70
     0
  9
$MIRRTEXT
 70
     0
  9
$LTSCALE
 40
1.0
  9
$ATTMODE
 70
     1
  9
$TEXTSIZE
 40
2.5
  9
$TRACEWID
 40
1.0
  9
$TEXTSTYLE
  7
Standard
  9
$CLAYER
  8
0
  9
$CELTYPE
  6
ByLayer
  9
$CECOLOR
 62
   256
  9
$CELTSCALE
 40
1.0
  9
$DISPSILH
 70
     0
  9
$DIMSCALE
 40
1.0
  9
$DIMASZ
 40
2.5
  9
$DIMEXO
 40
0.625
  9
$DIMDLI
 40
3.75
  9
$DIMRND
 40
0.0
  9
$DIMDLE
 40
0.0
  9
$DIMEXE
 40
1.25
  9
$DIMTP
 40
0.0
  9
$DIMTM
 40
0.0
  9
$DIMTXT
 40
2.5
  9
$DIMCEN
 40
2.5
  9
$DIMTSZ
 40
0.0
  9
$DIMTOL
 70
     0
  9
$DIMLIM
 70
     0
  9
$DIMTIH
 70
     0
  9
$DIMTOH
 70
     0
  9
$DIMSE1
 70
     0
  9
$DIMSE2
 70
     0
  9
$DIMTAD
 70
     1
  9
$DIMZIN
 70
     8
  9
$DIMBLK
  1

  9
$DIMASO
 70
     1
  9
$DIMSHO
 70
     1
  9
$DIMPOST
  1

  9
$DIMAPOST
  1

  9
$DIMALT
 70
     0
  9
$DIMALTD
 70
     3
  9
$DIMALTF
 40
0.03937007874016
  9
$DIMLFAC
 40
1.0
  9
$DIMTOFL
 70
     1
  9
$DIMTVP
 40
0.0
  9
$DIMTIX
 70
     0
  9
$DIMSOXD
 70
     0
  9
$DIMSAH
 70
     0
  9
$DIMBLK1
  1

  9
$DIMBLK2
  1

  9
$DIMSTYLE
  2
ISO-25
  9
$DIMCLRD
 70
     0
  9
$DIMCLRE
 70
     0
  9
$DIMCLRT
 70
     0
  9
$DIMTFAC
 40
1.0
  9
$DIMGAP
 40
0.625
  9
$DIMJUST
 70
     0
  9
$DIMSD1
 70
     0
  9
$DIMSD2
 70
     0
  9
$DIMTOLJ
 70
     1
  9
$DIMTZIN
 70
     0
  9
$DIMALTZ
 70
     0
  9
$DIMALTTZ
 70
     0
  9
$DIMUPT
 70
     0
  9
$DIMDEC
 70
     4
  9
$DIMTDEC
 70
     4
  9
$DIMALTU
 70
     2
  9
$DIMALTTD
 70
     2
  9
$DIMTXSTY
  7
Standard
  9
$DIMAUNIT
 70
     0
  9
$DIMADEC
 70
     0
  9
$DIMALTRND
 40
0.0
  9
$DIMAZIN
 70
     0
  9
$DIMDSEP
 70
    46
  9
$DIMATFIT
 70
     3
  9
$DIMFRAC
 70
     0
  9
$DIMLDRBLK
  1

  9
$DIMLUNIT
 70
     2
  9
$DIMLWD
 70
    -2
  9
$DIMLWE
 70
    -2
  9
$DIMTMOVE
 70
     0
  9
$LUNITS
 70
     2
  9
$LUPREC
 70
     4
  9
$SKETCHINC
 40
1.0
  9
$FILLETRAD
 40
0.0
  9
$AUNITS
 70
     0
  9
$AUPREC
 70
     0
  9
$MENU
  1
.
  9
$ELEVATION
 40
0.0
  9
$PELEVATION
 40
0.0
  9
$THICKNESS
 40
0.0
  9
$LIMCHECK
 70
     0
  9
$CHAMFERA
 40
0.0
  9
$CHAMFERB
 40
0.0
  9
$CHAMFERC
 40
0.0
  9
$CHAMFERD
 40
0.0
  9
$SKPOLY
 70
     0
  9
$TDCREATE
 40
2453353.758792488
  9
$TDUCREATE
 40
2453353.717125822
  9
$TDUPDATE
 40
2458490.738245266
  9
$TDUUPDATE
 40
2458490.6965786
  9
$TDINDWG
 40
9763088.048874827
  9
$TDUSRTIMER
 40
0.0022001852
  9
$USRTIMER
 70
     1
  9
$ANGBASE
 50
0.0
  9
$ANGDIR
 70
     0
  9
$PDMODE
 70
     0
  9
$PDSIZE
 40
0.0
  9
$PLINEWID
 40
0.0
  9
$SPLFRAME
 70
     0
  9
$SPLINETYPE
 70
     6
  9
$SPLINESEGS
 70
     8
  9
$HANDSEED
  5
42C
  9
$SURFTAB1
 70
     6
  9
$SURFTAB2
 70
     6
  9
$SURFTYPE
 70
     6
  9
$SURFU
 70
     6
  9
$SURFV
 70
     6
  9
$UCSBASE
  2

  9
$UCSNAME
  2

  9
$UCSORG
 10
0.0
 20
0.0
 30
0.0
  9
$UCSXDIR
 10
1.0
 20
0.0
 30
0.0
  9
$UCSYDIR
 10
0.0
 20
1.0
 30
0.0
  9
$UCSORTHOREF
  2

  9
$UCSORTHOVIEW
 70
     0
  9
$UCSORGTOP
 10
0.0
 20
0.0
 30
0.0
  9
$UCSORGBOTTOM
 10
0.0
 20
0.0
 30
0.0
  9
$UCSORGLEFT
 10
0.0
 20
0.0
 30
0.0
  9
$UCSORGRIGHT
 10
0.0
 20
0.0
 30
0.0
  9
$UCSORGFRONT
 10
0.0
 20
0.0
 30
0.0
  9
$UCSORGBACK
 10
0.0
 20
0.0
 30
0.0
  9
$PUCSBASE
  2

  9
$PUCSNAME
  2

  9
$PUCSORG
 10
0.0
 20
0.0
 30
0.0
  9
$PUCSXDIR
 10
1.0
 20
0.0
 30
0.0
  9
$PUCSYDIR
 10
0.0
 20
1.0
 30
0.0
  9
$PUCSORTHOREF
  2

  9
$PUCSORTHOVIEW
 70
     0
  9
$PUCSORGTOP
 10
0.0
 20
0.0
 30
0.0
  9
$PUCSORGBOTTOM
 10
0.0
 20
0.0
 30
0.0
  9
$PUCSORGLEFT
 10
0.0
 20
0.0
 30
0.0
  9
$PUCSORGRIGHT
 10
0.0
 20
0.0
 30
0.0
  9
$PUCSORGFRONT
 10
0.0
 20
0.0
 30
0.0
  9
$PUCSORGBACK
 10
0.0
 20
0.0
 30
0.0
  9
$USERI1
 70
     0
  9
$USERI2
 70
     0
  9
$USERI3
 70
     0
  9
$USERI4
 70
     0
  9
$USERI5
 70
     0
  9
$USERR1
 40
0.0
  9
$USERR2
 40
0.0
  9
$USERR3
 40
0.0
  9
$USERR4
 40
0.0
  9
$USERR5
 40
0.0
  9
$WORLDVIEW
 70
     1
  9
$SHADEDGE
 70
     3
  9
$SHADEDIF
 70
    70
  9
$TILEMODE
 70
     1
  9
$MAXACTVP
 70
    64
  9
$PINSBASE
 10
0.0
 20
0.0
 30
0.0
  9
$PLIMCHECK
 70
     0
  9
$PEXTMIN
 10
1.129416694791297
 20
0.7870833066504774
 30
0.0
  9
$PEXTMAX
 10
10.16475025312168
 20
7.083749759854294
 30
0.0
  9
$PLIMMIN
 10
-0.1979161059762549
 20
-0.1979166691697489
  9
$PLIMMAX
 10
11.4920836921752
 20
8.068749773220754
  9
$UNITMODE
 70
     0
  9
$VISRETAIN
 70
     1
  9
$PLINEGEN
 70
     0
  9
$PSLTSCALE
 70
     1
  9
$TREEDEPTH
 70
  3020
  9
$CMLSTYLE
  2
Standard
  9
$CMLJUST
 70
     0
  9
$CMLSCALE
 40
1.0
  9
$PROXYGRAPHICS
 70
     1
  9
$MEASUREMENT
 70
     0
  9
$CELWEIGHT
370
    -1
  9
$ENDCAPS
280
     0
  9
$JOINSTYLE
280
     0
  9
$LWDISPLAY
290
     0
  9
$INSUNITS
 70
     0
  9
$HYPERLINKBASE
  1

  9
$STYLESHEET
  1

  9
$XEDIT
290
     0
  9
$CEPSNTYPE
380
     0
  9
$PSTYLEMODE
290
     1
  9
$FINGERPRINTGUID
  2
{B8EDF9FE-5D68-420C-8F80-142D2629D3C2}
  9
$VERSIONGUID
  2
{33E38F82-3015-420D-8565-4D8BE519DD19}
  9
$EXTNAMES
290
     1
  9
$PSVPSCALE
 40
0.0
  9
$OLESTARTUP
290
     0
  0
ENDSEC
  0
SECTION
  2
CLASSES
  0
CLASS
  1
ACDBDICTIONARYWDFLT
  2
AcDbDictionaryWithDefault
  3
ObjectDBX Classes
 90
        0
280
     0
281
     0
  0
CLASS
  1
ACDBPLACEHOLDER
  2
AcDbPlaceHolder
  3
ObjectDBX Classes
 90
        0
280
     0
281
     0
  0
CLASS
  1
LAYOUT
  2
AcDbLayout
  3
ObjectDBX Classes
 90
        0
280
     0
281
     0
  0
CLASS
  1
DICTIONARYVAR
  2
AcDbDictionaryVar
  3
ObjectDBX Classes
 90
        0
280
     0
281
     0
  0
CLASS
  1
TABLESTYLE
  2
AcDbTableStyle
  3
ObjectDBX Classes
 90
     4095
280
     0
281
     0
  0
CLASS
  1
SCALE
  2
AcDbScale
  3
ObjectDBX Classes
 90
     1153
280
     0
281
     0
  0
CLASS
  1
VISUALSTYLE
  2
AcDbVisualStyle
  3
ObjectDBX Classes
 90
     4095
280
     0
281
     0
  0
CLASS
  1
MATERIAL
  2
AcDbMaterial
  3
ObjectDBX Classes
 90
     1153
280
     0
281
     0
  0
CLASS
  1
MLEADERSTYLE
  2
AcDbMLeaderStyle
  3
ACDB_MLEADERSTYLE_CLASS
 90
     4095
280
     0
281
     0
  0
ENDSEC
  0
SECTION
  2
TABLES
  0
TABLE
  2
VPORT
  5
8
330
0
100
AcDbSymbolTable
 70
     2
  0
VPORT
  5
97
330
8
100
AcDbSymbolTableRecord
100
AcDbViewportTableRecord
  2
*Active
 70
     0
 10
0.0
 20
0.0
 11
1.0
 21
1.0
 12
1715.088852281601
 22
145.4542737588147
 13
0.0
 23
0.0
 14
10.0
 24
10.0
 15
10.0
 25
10.0
 16
0.0
 26
0.0
 36
1.0
 17
0.0
 27
0.0
 37
0.0
 40
2660.814880317685
 41
2.104651162790698
 42
50.0
 43
0.0
 44
0.0
 50
0.0
 51
0.0
 71
    16
 72
  1000
 73
     1
 74
     3
 75
     0
 76
     0
 77
     0
 78
     0
281
     0
 65
     1
110
0.0
120
0.0
130
0.0
111
1.0
121
0.0
131
0.0
112
0.0
122
1.0
132
0.0
 79
     0
146
0.0
  0
ENDTAB
  0
TABLE
  2
LTYPE
  5
5
330
0
100
AcDbSymbolTable
 70
     1
  0
LTYPE
  5
14
330
5
100
AcDbSymbolTableRecord
100
AcDbLinetypeTableRecord
  2
ByBlock
 70
     0
  3

 72
    65
 73
     0
 40
0.0
  0
LTYPE
  5
15
330
5
100
AcDbSymbolTableRecord
100
AcDbLinetypeTableRecord
  2
ByLayer
 70
     0
  3

 72
    65
 73
     0
 40
0.0
  0
LTYPE
  5
16
330
5
100
AcDbSymbolTableRecord
100
AcDbLinetypeTableRecord
  2
Continuous
 70
     0
  3
Solid line
 72
    65
 73
     0
 40
0.0
  0
ENDTAB
  0
TABLE
  2
LAYER
  5
2
330
0
100
AcDbSymbolTable
 70
     2
  0
LAYER
  5
10
330
2
100
AcDbSymbolTableRecord
100
AcDbLayerTableRecord
  2
0
 70
     0
 62
     7
  6
Continuous
370
    -3
390
F
  0
LAYER
  5
25E
330
2
100
AcDbSymbolTableRecord
100
AcDbLayerTableRecord
  2
Defpoints
 70
     0
 62
     7
  6
Continuous
290
     0
370
    -3
390
F
  0
ENDTAB
  0
TABLE
  2
STYLE
  5
3
330
0
100
AcDbSymbolTable
 70
     1
  0
STYLE
  5
11
330
3
100
AcDbSymbolTableRecord
100
AcDbTextStyleTableRecord
  2
Standard
 70
     0
 40
0.0
 41
1.0
 50
0.0
 71
     0
 42
2.5
  3
txt
  4

  0
ENDTAB
  0
TABLE
  2
VIEW
  5
6
330
0
100
AcDbSymbolTable
 70
     0
  0
ENDTAB
  0
TABLE
  2
UCS
  5
7
330
0
100
AcDbSymbolTable
 70
     0
  0
ENDTAB
  0
TABLE
  2
APPID
  5
9
330
0
100
AcDbSymbolTable
 70
     2
  0
APPID
  5
12
330
9
100
AcDbSymbolTableRecord
100
AcDbRegAppTableRecord
  2
ACAD
 70
     0
  0
APPID
  5
3CA
330
9
100
AcDbSymbolTableRecord
100
AcDbRegAppTableRecord
  2
ACAECLAYERSTANDARD
 70
     0
  0
ENDTAB
  0
TABLE
  2
DIMSTYLE
  5
A
330
0
100
AcDbSymbolTable
 70
     2
100
AcDbDimStyleTable
  0
DIMSTYLE
105
27
330
A
100
AcDbSymbolTableRecord
100
AcDbDimStyleTableRecord
  2
Standard
 70
     0
178
     0
274
     3
279
     2
284
     8
285
     8
286
     8
340
11
  0
DIMSTYLE
105
199
330
A
100
AcDbSymbolTableRecord
100
AcDbDimStyleTableRecord
  2
ISO-25
 70
     0
 41
2.5
 42
0.625
 43
3.75
 44
1.25
 73
     0
 74
     0
 77
     1
 78
     8
140
2.5
141
2.5
143
0.03937007874016
147
0.625
171
     3
172
     1
178
     0
274
     3
279
     2
284
     8
285
     8
286
     8
340
11
  0
ENDTAB
  0
TABLE
  2
BLOCK_RECORD
  5
1
330
0
100
AcDbSymbolTable
 70
     1
  0
BLOCK_RECORD
  5
1F
330
1
100
AcDbSymbolTableRecord
100
AcDbBlockTableRecord
  2
*Model_Space
340
22
  0
BLOCK_RECORD
  5
73
330
1
100
AcDbSymbolTableRecord
100
AcDbBlockTableRecord
  2
*Paper_Space
340
74
  0
BLOCK_RECORD
  5
3F2
330
1
100
AcDbSymbolTableRecord
100
AcDbBlockTableRecord
  2
nre-670
340
0
102
{BLKREFS
331
429
102
}
  0
ENDTAB
  0
ENDSEC
  0
SECTION
  2
BLOCKS
  0
BLOCK
  5
20
330
1F
100
AcDbEntity
  8
0
100
AcDbBlockBegin
  2
*Model_Space
 70
     0
 10
0.0
 20
0.0
 30
0.0
  3
*Model_Space
  1

  0
ENDBLK
  5
21
330
1F
100
AcDbEntity
  8
0
100
AcDbBlockEnd
  0
BLOCK
  5
75
330
73
100
AcDbEntity
 67
     1
  8
0
100
AcDbBlockBegin
  2
*Paper_Space
 70
     0
 10
0.0
 20
0.0
 30
0.0
  3
*Paper_Space
  1

  0
ENDBLK
  5
76
330
73
100
AcDbEntity
 67
     1
  8
0
100
AcDbBlockEnd
  0
BLOCK
  5
427
330
3F2
100
AcDbEntity
  8
0
100
AcDbBlockBegin
  2
nre-670
 70
     0
 10
0.0
 20
0.0
 30
0.0
  3
nre-670
  1

  0
LWPOLYLINE
  5
3F3
330
3F2
100
AcDbEntity
  8
0
100
AcDbPolyline
 90
        2
 70
     0
 43
9.0
 10
735.4435926489678
 20
162.2630907683251
 10
1404.141483869542
 20
162.3750351455365
  0
TEXT
  5
3F4
330
3F2
100
AcDbEntity
  8
0
 62
     2
100
AcDbText
 10
117.2163384054007
 20
21.640101720247
 30
0.0
 40
25.0
  1
JS 03/18
100
AcDbText
  0
LINE
  5
3F5
330
3F2
100
AcDbEntity
  8
0
100
AcDbLine
 10
-101.6771613882991
 20
68.38497097798347
 30
0.0
 11
122.0
 21
400.0
 31
0.0
  0
LINE
  5
3F6
330
3F2
100
AcDbEntity
  8
0
100
AcDbLine
 10
122.0
 20
400.0
 30
0.0
 11
802.0
 21
400.0
 31
0.0
  0
LINE
  5
3F7
330
3F2
100
AcDbEntity
  8
0
100
AcDbLine
 10
802.0
 20
400.0
 30
0.0
 11
802.0
 21
0.0
 31
0.0
  0
LINE
  5
3F8
330
3F2
100
AcDbEntity
  8
0
100
AcDbLine
 10
0.0
 20
0.0
 30
0.0
 11
-101.6771613882989
 21
68.38497097798341
 31
0.0
  0
TEXT
  5
3F9
330
3F2
100
AcDbEntity
  8
0
100
AcDbText
 10
2368.829357397737
 20
208.0654525928401
 30
0.0
 40
50.0
  1
NRE-670
100
AcDbText
  0
TEXT
  5
3FA
330
3F2
100
AcDbEntity
  8
0
100
AcDbText
 10
1997.179918945322
 20
211.0536626787928
 30
0.0
 40
50.0
  1
KaEli
100
AcDbText
  0
LINE
  5
3FB
330
3F2
100
AcDbEntity
  8
0
100
AcDbLine
 10
802.0
 20
0.0
 30
0.0
 11
0.0
 21
0.0
 31
0.0
  0
LINE
  5
3FC
330
3F2
100
AcDbEntity
  8
0
100
AcDbLine
 10
802.0
 20
400.0
 30
0.0
 11
1722.0
 21
400.0
 31
0.0
  0
LINE
  5
3FD
330
3F2
100
AcDbEntity
  8
0
100
AcDbLine
 10
1722.0
 20
400.0
 30
0.0
 11
1722.0
 21
0.0
 31
0.0
  0
LINE
  5
3FE
330
3F2
100
AcDbEntity
  8
0
100
AcDbLine
 10
2722.0
 20
0.0
 30
0.0
 11
1722.0
 21
0.0
 31
0.0
  0
LINE
  5
3FF
330
3F2
100
AcDbEntity
  8
0
100
AcDbLine
 10
1722.0
 20
400.0
 30
0.0
 11
2722.0
 21
400.0
 31
0.0
  0
LINE
  5
400
330
3F2
100
AcDbEntity
  8
0
100
AcDbLine
 10
2722.0
 20
400.0
 30
0.0
 11
2722.0
 21
0.0
 31
0.0
  0
LINE
  5
401
330
3F2
100
AcDbEntity
  8
0
100
AcDbLine
 10
3722.0
 20
0.0
 30
0.0
 11
2722.0
 21
0.0
 31
0.0
  0
LINE
  5
402
330
3F2
100
AcDbEntity
  8
0
100
AcDbLine
 10
2722.0
 20
400.0
 30
0.0
 11
3722.0
 21
400.0
 31
0.0
  0
LINE
  5
403
330
3F2
100
AcDbEntity
  8
0
100
AcDbLine
 10
3722.0
 20
400.0
 30
0.0
 11
3722.0
 21
0.0
 31
0.0
  0
TEXT
  5
404
330
3F2
100
AcDbEntity
  8
0
100
AcDbText
 10
1364.042309217478
 20
438.4320775386416
 30
0.0
 40
50.0
  1
Hochofenwerk Kattrup
100
AcDbText
  0
LWPOLYLINE
  5
405
330
3F2
100
AcDbEntity
  8
0
100
AcDbPolyline
 90
        8
 70
     0
 43
9.0
 10
63.23823254533033
 20
198.3917229121078
 10
269.1388188857527
 20
97.83339877189064
 10
490.663946627983
 20
50.39649275230659
 10
690.4321575343383
 20
32.60765206128417
 10
1151.300726758811
 20
32.40378138458982
 10
1648.176071347996
 20
74.98419717504112
 10
1842.518308399764
 20
75.10285657161148
 10
2785.128838337019
 20
75.0919661397711
  0
LWPOLYLINE
  5
406
330
3F2
100
AcDbEntity
  8
0
100
AcDbPolyline
 90
       11
 70
     0
 43
9.0
 10
478.9407330730573
 20
80.69314379929165
 10
605.0139982466371
 20
90.73552620824739
 10
605.0139982466371
 20
90.73552620824739
 10
605.0139982466371
 20
90.73552620824739
 10
1047.253023568792
 20
90.9268557086325
 10
1192.690945032369
 20
122.2955046957395
 10
1404.141483869542
 20
162.3750351455365
 10
1486.553061076966
 20
175.9118269827977
 10
1583.510390964635
 20
176.3769328536387
 10
1699.369264377476
 20
176.3821274574511
 10
2099.460023502204
 20
176.5170825262576
  0
LWPOLYLINE
  5
407
330
3F2
100
AcDbEntity
  8
0
100
AcDbPolyline
 90
        2
 70
     0
 43
9.0
 10
362.919974856266
 20
122.2954001236922
 10
1192.690945032369
 20
122.2955046957395
  0
LWPOLYLINE
  5
408
330
3F2
100
AcDbEntity
  8
0
100
AcDbPolyline
 90
        6
 70
     0
 43
9.0
 10
1151.300726758811
 20
32.40378138458982
 10
1416.374796614909
 20
88.07152341182882
 10
1604.770247474758
 20
112.4403510690063
 10
1839.731121177951
 20
113.5172265482161
 10
1839.731121177951
 20
113.5172265482161
 10
2785.076522057338
 20
113.5172265482161
  0
LWPOLYLINE
  5
409
330
3F2
100
AcDbEntity
  8
0
100
AcDbPolyline
 90
        5
 70
     0
 43
9.0
 10
230.4646802493298
 20
361.765695920998
 10
1008.677220734493
 20
361.765695920998
 10
1050.494084516127
 20
361.7372672628499
 10
1243.72944071557
 20
314.3651361574684
 10
1699.369264377476
 20
176.3821274574511
  0
LWPOLYLINE
  5
40A
330
3F2
100
AcDbEntity
  8
0
100
AcDbPolyline
 90
        3
 70
     0
 43
9.0
 10
225.8980220096673
 20
321.1073741252767
 10
835.6875472630618
 20
321.1073741252767
 10
1008.677220734493
 20
361.765695920998
  0
LWPOLYLINE
  5
40B
330
3F2
100
AcDbEntity
  8
0
100
AcDbPolyline
 90
        3
 70
     0
 43
9.0
 10
2647.136912717362
 20
335.1645015337199
 10
2485.901713911935
 20
371.7118869848055
 10
1905.397033407458
 20
371.7118869848055
  0
LWPOLYLINE
  5
40C
330
3F2
100
AcDbEntity
  8
0
100
AcDbPolyline
 90
        6
 70
     0
 43
9.0
 10
1583.510390964635
 20
176.3769328536387
 10
1130.814554913513
 20
266.1666319134765
 10
333.8436653465487
 20
265.7702814438708
 10
185.4599872421568
 20
230.0477901838658
 10
95.37828130086928
 20
127.0192631184364
 10
65.86097610941215
 20
26.26513327690736
  0
LWPOLYLINE
  5
40D
330
3F2
100
AcDbEntity
  8
0
100
AcDbPolyline
 90
        3
 70
     0
 43
9.0
 10
1486.553061076966
 20
175.9118269827977
 10
1189.196925161663
 20
203.1385564213833
 10
735.7325259732133
 20
203.1385564213833
  0
TEXT
  5
40E
330
3F2
100
AcDbEntity
  8
0
 62
     3
100
AcDbText
 10
393.134179831412
 20
330.1261842544802
 30
0.0
 40
25.0
  1
Hochbunker
100
AcDbText
  0
LINE
  5
40F
330
3F2
100
AcDbEntity
  8
0
100
AcDbLine
 10
802.0
 20
0.0
 30
0.0
 11
1722.0
 21
0.0
 31
0.0
  0
TEXT
  5
410
330
3F2
100
AcDbEntity
  8
0
100
AcDbText
 10
3530.467302753629
 20
338.4117292569736
 30
0.0
 40
50.0
  1
3600
100
AcDbText
  0
LWPOLYLINE
  5
411
330
3F2
100
AcDbEntity
  8
0
100
AcDbPolyline
 90
        2
 70
     0
 43
9.0
 10
10.16141930585056
 20
234.1924854889917
 10
63.23823254533033
 20
198.3917229121078
  0
LWPOLYLINE
  5
412
330
3F2
100
AcDbEntity
  8
0
100
AcDbPolyline
 90
        3
 70
     0
 43
9.0
 10
1842.518308399764
 20
75.10285657161148
 10
2007.574463618677
 20
43.25762794591174
 10
2707.207679863946
 20
43.25762794591174
  0
LWPOLYLINE
  5
413
330
3F2
100
AcDbEntity
  8
0
100
AcDbPolyline
 90
        3
 70
     0
 43
9.0
 10
2007.574463618677
 20
43.25762794591174
 10
2172.630618837591
 20
11.41239932021199
 10
2707.071922272737
 20
11.41239932021199
  0
LWPOLYLINE
  5
414
330
3F2
100
AcDbEntity
  8
0
100
AcDbPolyline
 90
        3
 70
     0
 43
9.0
 10
1839.731121177951
 20
113.5172265482161
 10
2099.460023502204
 20
176.5170825262576
 10
2785.081321943011
 20
176.6710872749954
  0
LWPOLYLINE
  5
415
330
3F2
100
AcDbEntity
  8
0
100
AcDbPolyline
 90
        4
 70
     0
 43
0.0
 10
113.2662799790342
 20
199.8315401028049
 10
113.2662799790342
 20
186.9013408373266
 10
163.5851144529224
 20
162.4776352633307
 10
183.7126432941404
 20
166.0693564515823
  0
LWPOLYLINE
  5
416
330
3F2
100
AcDbEntity
  8
0
100
AcDbPolyline
 90
        4
 70
     0
 43
0.0
 10
83.0749743463657
 20
163.9143282202913
 10
101.0459813566795
 20
168.2243921523059
 10
152.0836605644818
 20
143.80068657831
 10
154.9590271293018
 20
127.2787661245802
  0
LWPOLYLINE
  5
417
330
3F2
100
AcDbEntity
  8
0
 62
     3
100
AcDbPolyline
 90
        4
 70
     1
 43
0.0
 10
361.7983355925735
 20
246.3456575556684
 10
683.8564131273397
 20
246.3456575556684
 10
683.8564131273397
 20
147.5364258847312
 10
361.7983355925735
 20
147.5364258847312
  0
TEXT
  5
418
330
3F2
100
AcDbEntity
  8
0
 62
     3
100
AcDbText
 10
400.6542275197812
 20
187.4753306712676
 30
0.0
 40
25.0
  1
Hochofen
100
AcDbText
  0
LWPOLYLINE
  5
419
330
3F2
100
AcDbEntity
  8
0
100
AcDbPolyline
 90
        6
 70
     0
 43
9.0
 10
1199.829834789014
 20
364.6334498831966
 10
1600.927629721544
 20
295.5365206559236
 10
1600.927629721544
 20
295.5365206559236
 10
1920.041472228735
 20
296.6133961351334
 10
1920.041472228735
 20
296.6133961351334
 10
2785.028585054792
 20
296.6133961351334
  0
LWPOLYLINE
  5
41A
330
3F2
100
AcDbEntity
  8
0
100
AcDbPolyline
 90
        6
 70
     0
 43
9.0
 10
1920.041472228735
 20
296.6133961351334
 10
1759.442381983537
 20
330.9801854892303
 10
1602.16086632716
 20
330.9825831768994
 10
1277.817263848574
 20
387.2136697647093
 10
1277.817263848574
 20
387.2136697647093
 10
1277.817263848574
 20
387.2136697647093
  0
LWPOLYLINE
  5
41B
330
3F2
100
AcDbEntity
  8
0
100
AcDbPolyline
 90
        6
 70
     0
 43
9.0
 10
1906.522260214566
 20
335.0194825116632
 10
2647.136912717362
 20
335.1645015337199
 10
2647.136912717362
 20
335.1645015337199
 10
2647.136912717362
 20
335.1645015337199
 10
2647.136912717362
 20
335.1645015337199
 10
2785.082546656109
 20
335.1645015337199
  0
LWPOLYLINE
  5
41C
330
3F2
100
AcDbEntity
  8
0
 62
     1
100
AcDbPolyline
 90
        4
 70
     1
 43
0.0
 10
2785.116418014295
 20
371.8304418093267
 10
3508.281605723634
 20
371.8304418093267
 10
3508.281605723634
 20
35.8541286335967
 10
2785.116418014295
 20
35.8541286335967
  0
TEXT
  5
41D
330
3F2
100
AcDbEntity
  8
0
 62
     1
100
AcDbText
 10
2989.420299126512
 20
177.6807167908003
 30
0.0
 40
35.0
  1
Schiebebühne
100
AcDbText
  0
LWPOLYLINE
  5
41E
330
3F2
100
AcDbEntity
  8
0
 62
     6
100
AcDbPolyline
 90
        4
 70
     1
 43
0.0
 10
1725.764281050357
 20
395.4571664595842
 10
1737.074543616383
 20
395.4571664595842
 10
1737.074543616383
 20
5.008974787400803
 10
1725.764281050357
 20
5.008974787400803
  0
TEXT
  5
41F
330
3F2
100
AcDbEntity
  8
0
 62
     6
100
AcDbText
 10
1750.580383672008
 20
211.2322027044931
 30
0.0
 40
25.0
  1
Kulisse
100
AcDbText
  0
LWPOLYLINE
  5
420
330
3F2
100
AcDbEntity
  8
0
100
AcDbPolyline
 90
        7
 70
     0
 43
0.0
 10
1438.374045823137
 20
81.69238200241307
 10
1604.854554745041
 20
102.3521586336647
 10
1716.929658487534
 20
103.4395137259544
 10
1716.385613713868
 20
82.23605954855884
 10
1641.850217896203
 20
83.86709218699434
 10
1439.462160112143
 20
66.46938083261739
 10
1438.374045823137
 20
81.69238200241307
  0
TEXT
  5
421
330
3F2
100
AcDbEntity
  8
0
100
AcDbText
 10
1459.936223815082
 20
15.16938136934324
 30
0.0
 40
24.99999999999999
  1
Bahnsteig
 50
4.156780542621814
100
AcDbText
  0
LWPOLYLINE
  5
422
330
3F2
100
AcDbEntity
  8
0
100
AcDbPolyline
 90
        2
 70
     0
 43
9.0
 10
3508.085218648688
 20
153.8945184348013
 10
3717.044839496039
 20
153.8945184348013
  0
LWPOLYLINE
  5
423
330
3F2
100
AcDbEntity
  8
0
100
AcDbPolyline
 90
        2
 70
     0
 43
9.0
 10
3508.085218648688
 20
190.2666859503024
 10
3717.044839496039
 20
190.2666859503024
  0
LWPOLYLINE
  5
424
330
3F2
100
AcDbEntity
  8
0
100
AcDbPolyline
 90
        2
 70
     0
 43
9.0
 10
3508.022783022405
 20
228.3087346200118
 10
3716.982403869755
 20
228.3087346200118
  0
LWPOLYLINE
  5
425
330
3F2
100
AcDbEntity
  8
0
100
AcDbPolyline
 90
        2
 70
     0
 43
9.0
 10
3507.671983130485
 20
262.4629439397177
 10
3716.631603977836
 20
262.4629439397177
  0
TEXT
  5
426
330
3F2
100
AcDbEntity
  8
0
100
AcDbText
 10
90.7696313532092
 20
244.4775792180186
 30
0.0
 40
49.99999999999999
  1
124°
 50
56.63619131288225
100
AcDbText
  0
ENDBLK
  5
428
330
3F2
100
AcDbEntity
  8
0
100
AcDbBlockEnd
  0
ENDSEC
  0
SECTION
  2
ENTITIES
  0
INSERT
  5
429
330
1F
100
AcDbEntity
  8
0
100
AcDbBlockReference
  2
nre-670
 10
0.0
 20
0.0
 30
0.0
  0
VIEWPORT
  5
34D
330
73
100
AcDbEntity
 67
     1
  8
0
100
AcDbViewport
 10
4.118683006024355
 20
8.329035724819166
 30
0.0
 40
39.60424565528217
 41
23.91278478448544
 68
     1
 69
     1
 12
4.118683006024355
 22
8.329035724819166
 13
0.0
 23
0.0
 14
10.0
 24
10.0
 15
10.0
 25
10.0
 16
0.0
 26
0.0
 36
1.0
 17
0.0
 27
0.0
 37
0.0
 42
50.0
 43
0.0
 44
0.0
 45
23.91278478448544
 50
0.0
 51
0.0
 72
  1000
 90
    32800
  1

281
     0
 71
     1
 74
     0
110
0.0
120
0.0
130
0.0
111
1.0
121
0.0
131
0.0
112
0.0
122
1.0
132
0.0
 79
     0
146
0.0
  0
VIEWPORT
  5
34F
330
73
100
AcDbEntity
 67
     1
  8
0
100
AcDbViewport
 10
5.64708347395649
 20
3.935416533252386
 30
0.0
 40
9.035333558330386
 41
6.296666453203817
 68
     2
 69
     2
 12
1773.555134499677
 22
-42.40303561536393
 13
0.0
 23
0.0
 14
10.0
 24
10.0
 15
10.0
 25
10.0
 16
0.0
 26
0.0
 36
1.0
 17
0.0
 27
0.0
 37
0.0
 42
50.0
 43
0.0
 44
0.0
 45
616.4636353011401
 50
0.0
 51
0.0
 72
  1000
 90
    32880
  1

281
     0
 71
     1
 74
     0
110
0.0
120
0.0
130
0.0
111
1.0
121
0.0
131
0.0
112
0.0
122
1.0
132
0.0
 79
     0
146
0.0
  0
ENDSEC
  0
SECTION
  2
OBJECTS
  0
DICTIONARY
  5
C
330
0
100
AcDbDictionary
281
     1
  3
ACAD_DETAILVIEWSTYLE
350
3C4
  3
ACAD_GROUP
350
D
  3
ACAD_LAYOUT
350
1A
  3
ACAD_MLINESTYLE
350
17
  3
ACAD_PLOTSETTINGS
350
19
  3
ACAD_PLOTSTYLENAME
350
E
  3
ACAD_SCALELIST
350
395
  3
ACAD_SECTIONVIEWSTYLE
350
3C5
  3
AcDbVariableDictionary
350
59
  3
APPDATA
350
3BF
  3
DWGPROPS
350
42B
  0
DICTIONARY
  5
3C4
102
{ACAD_REACTORS
330
C
102
}
330
C
100
AcDbDictionary
281
     1
  0
DICTIONARY
  5
D
102
{ACAD_REACTORS
330
C
102
}
330
C
100
AcDbDictionary
281
     1
  0
DICTIONARY
  5
1A
102
{ACAD_REACTORS
330
C
102
}
330
C
100
AcDbDictionary
281
     1
  3
Layout1
350
74
  3
Model
350
22
  0
DICTIONARY
  5
17
102
{ACAD_REACTORS
330
C
102
}
330
C
100
AcDbDictionary
281
     1
  3
Standard
350
18
  0
DICTIONARY
  5
19
102
{ACAD_REACTORS
330
C
102
}
330
C
100
AcDbDictionary
281
     1
  0
ACDBDICTIONARYWDFLT
  5
E
102
{ACAD_REACTORS
330
C
102
}
330
C
100
AcDbDictionary
281
     1
  3
Normal
350
F
100
AcDbDictionaryWithDefault
340
F
  0
DICTIONARY
  5
395
102
{ACAD_REACTORS
330
C
102
}
330
C
100
AcDbDictionary
281
     1
  3
A0
350
396
  3
A1
350
397
  3
A2
350
398
  3
A3
350
399
  3
A4
350
39A
  3
A5
350
39B
  3
A6
350
39C
  3
A7
350
39D
  3
A8
350
39E
  3
A9
350
39F
  3
B0
350
3A0
  3
B1
350
3A1
  3
B2
350
3A2
  3
B3
350
3A3
  3
B4
350
3A4
  3
B5
350
3A5
  3
B6
350
3A6
  3
B7
350
3A7
  3
B8
350
3A8
  3
B9
350
3A9
  3
C0
350
3AA
  3
C1
350
3AB
  3
C2
350
3AC
  3
C3
350
3AD
  3
C4
350
3AE
  3
C5
350
3AF
  3
C6
350
3B0
  3
C7
350
3B1
  3
C8
350
3B2
  3
C9
350
3B3
  3
D0
350
3B4
  3
D1
350
3B5
  3
D2
350
3B6
  0
DICTIONARY
  5
3C5
102
{ACAD_REACTORS
330
C
102
}
330
C
100
AcDbDictionary
281
     1
  0
DICTIONARY
  5
59
102
{ACAD_REACTORS
330
C
102
}
330
C
100
AcDbDictionary
281
     1
  3
DIMASSOC
350
3CF
  3
HIDETEXT
350
21C
  0
DICTIONARY
  5
3BF
102
{ACAD_REACTORS
330
C
102
}
330
C
100
AcDbDictionary
281
     1
  0
XRECORD
  5
42B
102
{ACAD_REACTORS
330
C
102
}
330
C
100
AcDbXrecord
280
     1
  1
DWGPROPS COOKIE
  2

  3

  4

  6

  7

  8
Melchor
  9

300
=
301
=
302
=
303
=
304
=
305
=
306
=
307
=
308
=
309
=
 40
0.0
 41
2453353.717125822
 42
2458490.6965786
  1

 90
        0
  0
LAYOUT
  5
74
102
{ACAD_REACTORS
330
1A
102
}
330
1A
100
AcDbPlotSettings
  1

  2
Samsung CLP-320 Series
  4
Samsung CLP-320 Series
  6

 40
5.027083396911621
 41
5.027085304260254
 42
5.027084350585938
 43
5.027069091796875
 44
209.9733276367188
 45
296.9259948730469
 46
0.0
 47
0.0
 48
0.0
 49
0.0
140
0.0
141
0.0
142
1.0
143
1.0
 70
   688
 72
     0
 73
     1
 74
     5
  7

 75
    16
147
1.0
148
0.0
149
0.0
100
AcDbLayout
  1
Layout1
 70
     1
 71
     1
 10
-0.1979161059762549
 20
-0.1979166691697489
 11
11.4920836921752
 21
8.068749773220754
 12
0.0
 22
0.0
 32
0.0
 14
1.129416694791297
 24
0.7870833066504774
 34
0.0
 15
10.16475025312168
 25
7.083749759854294
 35
0.0
146
0.0
 13
0.0
 23
0.0
 33
0.0
 16
1.0
 26
0.0
 36
0.0
 17
0.0
 27
1.0
 37
0.0
 76
     0
330
73
331
34D
  0
LAYOUT
  5
22
102
{ACAD_REACTORS
330
1A
102
}
330
1A
100
AcDbPlotSettings
  1

  2
Samsung CLP-320 Series
  4
Samsung CLP-320 Series
  6

 40
0.0
 41
0.0
 42
0.0
 43
0.0
 44
0.0
 45
0.0
 46
0.0
 47
0.0
 48
0.0
 49
0.0
140
0.0
141
0.0
142
1.0
143
1.0
 70
 11952
 72
     0
 73
     0
 74
     0
  7

 75
     0
147
1.0
148
0.0
149
0.0
100
AcDbLayout
  1
Model
 70
     1
 71
     0
 10
0.0
 20
0.0
 11
420.0
 21
297.0
 12
0.0
 22
0.0
 32
0.0
 14
-101.6771613882993
 24
0.0
 34
0.0
 15
3722.0
 25
488.4320775386416
 35
0.0
146
0.0
 13
0.0
 23
0.0
 33
0.0
 16
1.0
 26
0.0
 36
0.0
 17
0.0
 27
1.0
 37
0.0
 76
     0
330
1F
331
97
  0
MLINESTYLE
  5
18
102
{ACAD_REACTORS
330
17
102
}
330
17
100
AcDbMlineStyle
  2
Standard
 70
     0
  3

 62
   256
 51
90.0
 52
90.0
 71
     2
 49
0.5
 62
   256
  6
BYLAYER
 49
-0.5
 62
   256
  6
BYLAYER
  0
ACDBPLACEHOLDER
  5
F
102
{ACAD_REACTORS
330
E
102
}
330
E
  0
SCALE
  5
396
102
{ACAD_REACTORS
330
395
102
}
330
395
100
AcDbScale
 70
     0
300
1:1
140
1.0
141
1.0
290
     1
  0
SCALE
  5
397
102
{ACAD_REACTORS
330
395
102
}
330
395
100
AcDbScale
 70
     0
300
1:2
140
1.0
141
2.0
290
     0
  0
SCALE
  5
398
102
{ACAD_REACTORS
330
395
102
}
330
395
100
AcDbScale
 70
     0
300
1:4
140
1.0
141
4.0
290
     0
  0
SCALE
  5
399
102
{ACAD_REACTORS
330
395
102
}
330
395
100
AcDbScale
 70
     0
300
1:5
140
1.0
141
5.0
290
     0
  0
SCALE
  5
39A
102
{ACAD_REACTORS
330
395
102
}
330
395
100
AcDbScale
 70
     0
300
1:8
140
1.0
141
8.0
290
     0
  0
SCALE
  5
39B
102
{ACAD_REACTORS
330
395
102
}
330
395
100
AcDbScale
 70
     0
300
1:10
140
1.0
141
10.0
290
     0
  0
SCALE
  5
39C
102
{ACAD_REACTORS
330
395
102
}
330
395
100
AcDbScale
 70
     0
300
1:16
140
1.0
141
16.0
290
     0
  0
SCALE
  5
39D
102
{ACAD_REACTORS
330
395
102
}
330
395
100
AcDbScale
 70
     0
300
1:20
140
1.0
141
20.0
290
     0
  0
SCALE
  5
39E
102
{ACAD_REACTORS
330
395
102
}
330
395
100
AcDbScale
 70
     0
300
1:30
140
1.0
141
30.0
290
     0
  0
SCALE
  5
39F
102
{ACAD_REACTORS
330
395
102
}
330
395
100
AcDbScale
 70
     0
300
1:40
140
1.0
141
40.0
290
     0
  0
SCALE
  5
3A0
102
{ACAD_REACTORS
330
395
102
}
330
395
100
AcDbScale
 70
     0
300
1:50
140
1.0
141
50.0
290
     0
  0
SCALE
  5
3A1
102
{ACAD_REACTORS
330
395
102
}
330
395
100
AcDbScale
 70
     0
300
1:100
140
1.0
141
100.0
290
     0
  0
SCALE
  5
3A2
102
{ACAD_REACTORS
330
395
102
}
330
395
100
AcDbScale
 70
     0
300
2:1
140
2.0
141
1.0
290
     0
  0
SCALE
  5
3A3
102
{ACAD_REACTORS
330
395
102
}
330
395
100
AcDbScale
 70
     0
300
4:1
140
4.0
141
1.0
290
     0
  0
SCALE
  5
3A4
102
{ACAD_REACTORS
330
395
102
}
330
395
100
AcDbScale
 70
     0
300
8:1
140
8.0
141
1.0
290
     0
  0
SCALE
  5
3A5
102
{ACAD_REACTORS
330
395
102
}
330
395
100
AcDbScale
 70
     0
300
10:1
140
10.0
141
1.0
290
     0
  0
SCALE
  5
3A6
102
{ACAD_REACTORS
330
395
102
}
330
395
100
AcDbScale
 70
     0
300
100:1
140
100.0
141
1.0
290
     0
  0
SCALE
  5
3A7
102
{ACAD_REACTORS
330
395
102
}
330
395
100
AcDbScale
 70
     0
300
1/128" = 1'-0"
140
0.0078125
141
12.0
290
     0
  0
SCALE
  5
3A8
102
{ACAD_REACTORS
330
395
102
}
330
395
100
AcDbScale
 70
     0
300
1/64" = 1'-0"
140
0.015625
141
12.0
290
     0
  0
SCALE
  5
3A9
102
{ACAD_REACTORS
330
395
102
}
330
395
100
AcDbScale
 70
     0
300
1/32" = 1'-0"
140
0.03125
141
12.0
290
     0
  0
SCALE
  5
3AA
102
{ACAD_REACTORS
330
395
102
}
330
395
100
AcDbScale
 70
     0
300
1/16" = 1'-0"
140
0.0625
141
12.0
290
     0
  0
SCALE
  5
3AB
102
{ACAD_REACTORS
330
395
102
}
330
395
100
AcDbScale
 70
     0
300
3/32" = 1'-0"
140
0.09375
141
12.0
290
     0
  0
SCALE
  5
3AC
102
{ACAD_REACTORS
330
395
102
}
330
395
100
AcDbScale
 70
     0
300
1/8" = 1'-0"
140
0.125
141
12.0
290
     0
  0
SCALE
  5
3AD
102
{ACAD_REACTORS
330
395
102
}
330
395
100
AcDbScale
 70
     0
300
3/16" = 1'-0"
140
0.1875
141
12.0
290
     0
  0
SCALE
  5
3AE
102
{ACAD_REACTORS
330
395
102
}
330
395
100
AcDbScale
 70
     0
300
1/4" = 1'-0"
140
0.25
141
12.0
290
     0
  0
SCALE
  5
3AF
102
{ACAD_REACTORS
330
395
102
}
330
395
100
AcDbScale
 70
     0
300
3/8" = 1'-0"
140
0.375
141
12.0
290
     0
  0
SCALE
  5
3B0
102
{ACAD_REACTORS
330
395
102
}
330
395
100
AcDbScale
 70
     0
300
1/2" = 1'-0"
140
0.5
141
12.0
290
     0
  0
SCALE
  5
3B1
102
{ACAD_REACTORS
330
395
102
}
330
395
100
AcDbScale
 70
     0
300
3/4" = 1'-0"
140
0.75
141
12.0
290
     0
  0
SCALE
  5
3B2
102
{ACAD_REACTORS
330
395
102
}
330
395
100
AcDbScale
 70
     0
300
1" = 1'-0"
140
1.0
141
12.0
290
     0
  0
SCALE
  5
3B3
102
{ACAD_REACTORS
330
395
102
}
330
395
100
AcDbScale
 70
     0
300
1-1/2" = 1'-0"
140
1.5
141
12.0
290
     0
  0
SCALE
  5
3B4
102
{ACAD_REACTORS
330
395
102
}
330
395
100
AcDbScale
 70
     0
300
3" = 1'-0"
140
3.0
141
12.0
290
     0
  0
SCALE
  5
3B5
102
{ACAD_REACTORS
330
395
102
}
330
395
100
AcDbScale
 70
     0
300
6" = 1'-0"
140
6.0
141
12.0
290
     0
  0
SCALE
  5
3B6
102
{ACAD_REACTORS
330
395
102
}
330
395
100
AcDbScale
 70
     0
300
1'-0" = 1'-0"
140
12.0
141
12.0
290
     0
  0
DICTIONARYVAR
  5
3CF
102
{ACAD_REACTORS
330
59
102
}
330
59
100
DictionaryVariables
280
     0
  1
1
  0
DICTIONARYVAR
  5
21C
102
{ACAD_REACTORS
330
59
102
}
330
59
100
DictionaryVariables
280
     0
  1
1
  0
ENDSEC
  0
EOF
