  0
SECTION
  2
HEADER
  9
$ACADVER
  1
AC1009
  9
$DWGCODEPAGE
  3
ansi_1252
  9
$INSBASE
 10
0.0
 20
0.0
 30
0.0
  9
$EXTMIN
 10
-114.8048802237471
 20
-185.7272802682805
 30
0.0
  9
$EXTMAX
 10
803.4140329636618
 20
277.1634988628048
 30
0.0
  9
$LIMMIN
 10
0.0
 20
0.0
  9
$LIMMAX
 10
420.0
 20
297.0
  9
$ORTHOMODE
 70
     0
  9
$REGENMODE
 70
     1
  9
$FILLMODE
 70
     1
  9
$QTEXTMODE
 70
     0
  9
$MIRRTEXT
 70
     0
  9
$DRAGMODE
 70
     2
  9
$LTSCALE
 40
1.0
  9
$OSMODE
 70
    37
  9
$ATTMODE
 70
     1
  9
$TEXTSIZE
 40
40.0
  9
$TRACEWID
 40
1.0
  9
$TEXTSTYLE
  7
STANDARD
  9
$CLAYER
  8
0
  9
$CELTYPE
  6
BYLAYER
  9
$CECOLOR
 62
   256
  9
$DIMSCALE
 40
1.0
  9
$DIMASZ
 40
2.5
  9
$DIMEXO
 40
0.625
  9
$DIMDLI
 40
3.75
  9
$DIMRND
 40
0.0
  9
$DIMDLE
 40
0.0
  9
$DIMEXE
 40
1.25
  9
$DIMTP
 40
0.0
  9
$DIMTM
 40
0.0
  9
$DIMTXT
 40
20.0
  9
$DIMCEN
 40
2.5
  9
$DIMTSZ
 40
0.0
  9
$DIMTOL
 70
     0
  9
$DIMLIM
 70
     0
  9
$DIMTIH
 70
     0
  9
$DIMTOH
 70
     0
  9
$DIMSE1
 70
     0
  9
$DIMSE2
 70
     0
  9
$DIMTAD
 70
     1
  9
$DIMZIN
 70
     8
  9
$DIMBLK
  1

  9
$DIMASO
 70
     1
  9
$DIMSHO
 70
     1
  9
$DIMPOST
  1

  9
$DIMAPOST
  1

  9
$DIMALT
 70
     0
  9
$DIMALTD
 70
     3
  9
$DIMALTF
 40
0.03937007874016
  9
$DIMLFAC
 40
1.0
  9
$DIMTOFL
 70
     1
  9
$DIMTVP
 40
0.0
  9
$DIMTIX
 70
     0
  9
$DIMSOXD
 70
     0
  9
$DIMSAH
 70
     0
  9
$DIMBLK1
  1

  9
$DIMBLK2
  1

  9
$DIMSTYLE
  2
ISO-25
  9
$DIMCLRD
 70
     0
  9
$DIMCLRE
 70
     0
  9
$DIMCLRT
 70
     0
  9
$DIMTFAC
 40
1.0
  9
$DIMGAP
 40
0.625
  9
$LUNITS
 70
     2
  9
$LUPREC
 70
     4
  9
$SKETCHINC
 40
1.0
  9
$FILLETRAD
 40
0.0
  9
$AUNITS
 70
     0
  9
$AUPREC
 70
     0
  9
$MENU
  1
.
  9
$ELEVATION
 40
0.0
  9
$PELEVATION
 40
0.0
  9
$THICKNESS
 40
0.0
  9
$LIMCHECK
 70
     0
  9
$CHAMFERA
 40
0.0
  9
$CHAMFERB
 40
0.0
  9
$SKPOLY
 70
     0
  9
$TDCREATE
 40
2453353.800459144
  9
$TDUPDATE
 40
2456154.448272789
  9
$TDINDWG
 40
39053632.11528726
  9
$TDUSRTIMER
 40
39053632.11528726
  9
$USRTIMER
 70
     1
  9
$ANGBASE
 50
0.0
  9
$ANGDIR
 70
     0
  9
$PDMODE
 70
     0
  9
$PDSIZE
 40
0.0
  9
$PLINEWID
 40
9.0
  9
$COORDS
 70
     1
  9
$SPLFRAME
 70
     0
  9
$SPLINETYPE
 70
     6
  9
$SPLINESEGS
 70
     8
  9
$ATTDIA
 70
     0
  9
$ATTREQ
 70
     1
  9
$HANDLING
 70
     1
  9
$HANDSEED
  5
1986
  9
$SURFTAB1
 70
     6
  9
$SURFTAB2
 70
     6
  9
$SURFTYPE
 70
     6
  9
$SURFU
 70
     6
  9
$SURFV
 70
     6
  9
$UCSNAME
  2

  9
$UCSORG
 10
0.0
 20
0.0
 30
0.0
  9
$UCSXDIR
 10
1.0
 20
0.0
 30
0.0
  9
$UCSYDIR
 10
0.0
 20
1.0
 30
0.0
  9
$PUCSNAME
  2

  9
$PUCSORG
 10
0.0
 20
0.0
 30
0.0
  9
$PUCSXDIR
 10
1.0
 20
0.0
 30
0.0
  9
$PUCSYDIR
 10
0.0
 20
1.0
 30
0.0
  9
$USERI1
 70
     0
  9
$USERI2
 70
     0
  9
$USERI3
 70
     0
  9
$USERI4
 70
     0
  9
$USERI5
 70
     0
  9
$USERR1
 40
0.0
  9
$USERR2
 40
0.0
  9
$USERR3
 40
0.0
  9
$USERR4
 40
0.0
  9
$USERR5
 40
0.0
  9
$WORLDVIEW
 70
     1
  9
$SHADEDGE
 70
     3
  9
$SHADEDIF
 70
    70
  9
$TILEMODE
 70
     1
  9
$MAXACTVP
 70
    64
  9
$PLIMCHECK
 70
     0
  9
$PEXTMIN
 10
1.000000000000000E+20
 20
1.000000000000000E+20
 30
1.000000000000000E+20
  9
$PEXTMAX
 10
-1.000000000000000E+20
 20
-1.000000000000000E+20
 30
-1.000000000000000E+20
  9
$PLIMMIN
 10
0.0
 20
0.0
  9
$PLIMMAX
 10
420.0
 20
297.0
  9
$UNITMODE
 70
     0
  9
$VISRETAIN
 70
     1
  9
$PLINEGEN
 70
     0
  9
$PSLTSCALE
 70
     1
  0
ENDSEC
  0
SECTION
  2
TABLES
  0
TABLE
  2
VPORT
 70
     1
  0
VPORT
  2
*ACTIVE
 70
     0
 10
0.0
 20
0.0
 11
1.0
 21
1.0
 12
413.6438973035731
 22
-9.552363910692428
 13
0.0
 23
0.0
 14
10.0
 24
10.0
 15
10.0
 25
10.0
 16
0.0
 26
0.0
 36
1.0
 17
0.0
 27
0.0
 37
0.0
 40
1402.577982446016
 41
1.664827586206897
 42
50.0
 43
0.0
 44
0.0
 50
0.0
 51
0.0
 71
    16
 72
  1000
 73
     1
 74
     1
 75
     0
 76
     0
 77
     0
 78
     0
  0
ENDTAB
  0
TABLE
  2
LTYPE
 70
     1
  0
LTYPE
  2
CONTINUOUS
 70
     0
  3
Solid line
 72
    65
 73
     0
 40
0.0
  0
ENDTAB
  0
TABLE
  2
LAYER
 70
     3
  0
LAYER
  2
0
 70
     0
 62
     7
  6
CONTINUOUS
  0
LAYER
  2
BEDIENRAUM
 70
     0
 62
     2
  6
CONTINUOUS
  0
LAYER
  2
DEFPOINTS
 70
     0
 62
     7
  6
CONTINUOUS
  0
ENDTAB
  0
TABLE
  2
STYLE
 70
     1
  0
STYLE
  2
STANDARD
 70
     0
 40
0.0
 41
1.0
 50
0.0
 71
     0
 42
2.5
  3
txt
  4

  0
ENDTAB
  0
TABLE
  2
VIEW
 70
     0
  0
ENDTAB
  0
TABLE
  2
UCS
 70
     0
  0
ENDTAB
  0
TABLE
  2
APPID
 70
     1
  0
APPID
  2
ACAD
 70
     0
  0
ENDTAB
  0
TABLE
  2
DIMSTYLE
 70
     2
  0
DIMSTYLE
  2
STANDARD
 70
     0
  3

  4

  5

  6

  7

 40
1.0
 41
0.18
 42
0.0625
 43
0.38
 44
0.18
 45
0.0
 46
0.0
 47
0.0
 48
0.0
140
0.18
141
0.09
142
0.0
143
25.4
144
1.0
145
0.0
146
1.0
147
0.09
 71
     0
 72
     0
 73
     1
 74
     1
 75
     0
 76
     0
 77
     0
 78
     0
170
     0
171
     2
172
     0
173
     0
174
     0
175
     0
176
     0
177
     0
178
     0
  0
DIMSTYLE
  2
ISO-25
 70
     0
  3

  4

  5

  6

  7

 40
1.0
 41
2.5
 42
0.625
 43
3.75
 44
1.25
 45
0.0
 46
0.0
 47
0.0
 48
0.0
140
2.5
141
2.5
142
0.0
143
0.03937007874016
144
1.0
145
0.0
146
1.0
147
0.625
 71
     0
 72
     0
 73
     0
 74
     0
 75
     0
 76
     0
 77
     1
 78
     8
170
     0
171
     3
172
     1
173
     0
174
     0
175
     0
176
     0
177
     0
178
     0
  0
ENDTAB
  0
ENDSEC
  0
SECTION
  2
BLOCKS
  0
BLOCK
  8
0
  2
$MODEL_SPACE
 70
     0
 10
0.0
 20
0.0
 30
0.0
  3
$MODEL_SPACE
  1

  0
ENDBLK
  5
21
  8
0
  0
BLOCK
 67
     1
  8
0
  2
$PAPER_SPACE
 70
     0
 10
0.0
 20
0.0
 30
0.0
  3
$PAPER_SPACE
  1

  0
ENDBLK
  5
76
 67
     1
  8
0
  0
BLOCK
  8
0
  2
NRE-381
 70
     0
 10
0.0
 20
0.0
 30
0.0
  3
NRE-381
  1

  0
LINE
  5
1947
  8
0
 10
76.5366864730301
 20
-184.7759065022524
 30
0.0
 11
612.2934917841558
 21
-184.7759065022524
 31
0.0
  0
POLYLINE
  5
1948
  8
0
 66
     1
 10
0.0
 20
0.0
 30
0.0
 40
9.0
 41
9.0
  0
VERTEX
  5
1970
  8
0
 10
688.8301782571737
 20
0.0000000000050022
 30
0.0
 42
0.1989123673796618
  0
VERTEX
  5
1971
  8
0
 10
0.0
 20
0.0
 30
0.0
 42
5.027339492125759
  0
SEQEND
  5
196F
  8
0
  0
LINE
  5
1949
  8
0
 10
-114.8048802237471
 20
277.1634988628048
 30
0.0
 11
803.4140329636618
 21
276.6298960613963
 31
0.0
  0
LINE
  5
194A
  8
0
 10
-114.8048802237471
 20
277.1634988628048
 30
0.0
 11
76.5366864730301
 21
-184.7759065022524
 31
0.0
  0
LINE
  5
194B
  8
0
 10
802.9823142775258
 20
276.34005913906
 30
0.0
 11
612.2934917841558
 21
-184.7759065022524
 31
0.0
  0
LINE
  5
194C
  8
0
 10
611.6407475807564
 20
-185.5993462259971
 30
0.0
 11
802.9823142775258
 21
276.34005913906
 31
0.0
  0
LINE
  5
194D
  8
0
 10
802.5502765363985
 20
275.2970277649733
 30
0.0
 11
642.380390736382
 21
16.84233250309535
 31
0.0
  0
LINE
  5
194E
  8
0
 10
642.380390736382
 20
16.84233250309535
 30
0.0
 11
611.6407475807564
 21
-185.5993462259971
 31
0.0
  0
INSERT
  5
194F
  8
0
  2
*U6
 10
0.0
 20
0.0
 30
0.0
1001
ACAD
1002
{
1000
R14_HATCH_DATA
1000
194F
1011
1.0
1021
0.0
1031
0.0
1021
0.0
1031
0.0
1011
0.0
1021
1.0
1031
0.0
1021
1.0
1031
0.0
1011
0.0
1021
0.0
1031
1.0
1021
0.0
1031
1.0
1040
0.0
1010
0.0
1020
0.0
1030
1.0
1020
0.0
1030
1.0
1000
SOLID
1070
     1
1070
     1
1071
        1
1071
        7
1070
     1
1070
     1
1071
        3
1040
642.380390736382
1040
16.84233250309535
1040
-0.0122733823747595
1040
688.1774340537743
1040
-0.8234397237397388
1040
0.0
1040
802.5502765363985
1040
275.2970277649733
1040
0.0
1071
        0
1070
     0
1070
     1
1040
0.001
1071
        0
1002
}
  0
INSERT
  5
1950
  8
0
  2
*U7
 10
0.0
 20
0.0
 30
0.0
1001
ACAD
1002
{
1000
R14_HATCH_DATA
1000
1950
1011
1.0
1021
0.0
1031
0.0
1021
0.0
1031
0.0
1011
0.0
1021
1.0
1031
0.0
1021
1.0
1031
0.0
1011
0.0
1021
0.0
1031
1.0
1021
0.0
1031
1.0
1040
0.0
1010
0.0
1020
0.0
1030
1.0
1020
0.0
1030
1.0
1000
SOLID
1070
     1
1070
     1
1071
        1
1071
        7
1070
     1
1070
     1
1071
        3
1040
688.1774340537745
1040
-0.8234397237397388
1040
0.0122733823747597
1040
642.380390736382
1040
16.84233250309535
1040
0.0
1040
611.6407475807564
1040
-185.5993462259971
1040
0.0
1071
        0
1070
     0
1070
     1
1040
0.001
1071
        0
1002
}
  0
INSERT
  5
1951
  8
0
  2
*U8
 10
0.0
 20
0.0
 30
0.0
1001
ACAD
1002
{
1000
R14_HATCH_DATA
1000
1951
1011
1.0
1021
0.0
1031
0.0
1021
0.0
1031
0.0
1011
0.0
1021
1.0
1031
0.0
1021
1.0
1031
0.0
1011
0.0
1021
0.0
1031
1.0
1021
0.0
1031
1.0
1040
0.0
1010
0.0
1020
0.0
1030
1.0
1020
0.0
1030
1.0
1000
SOLID
1070
     1
1070
     1
1071
        1
1071
        7
1070
     1
1070
     1
1071
        3
1040
46.35329704702121
1040
16.69965867367682
1040
0.0122733823747595
1040
0.564716456707572
1040
-0.9880368378894673
1040
0.0
1040
-113.9403054403011
1040
275.0776430719939
1040
0.0
1071
        0
1070
     0
1070
     1
1040
0.001
1071
        0
1002
}
  0
INSERT
  5
1952
  8
0
  2
*U9
 10
0.0
 20
0.0
 30
0.0
1001
ACAD
1002
{
1000
R14_HATCH_DATA
1000
1952
1011
1.0
1021
0.0
1031
0.0
1021
0.0
1031
0.0
1011
0.0
1021
1.0
1031
0.0
1021
1.0
1031
0.0
1011
0.0
1021
0.0
1031
1.0
1021
0.0
1031
1.0
1040
0.0
1010
0.0
1020
0.0
1030
1.0
1020
0.0
1030
1.0
1000
SOLID
1070
     1
1070
     1
1071
        1
1071
        7
1070
     1
1070
     1
1071
        3
1040
0.5647164567073446
1040
-0.9880368378894673
1040
-0.0122733823747597
1040
46.3532970470211
1040
16.69965867367682
1040
0.0
1040
77.18985552194346
1040
-185.7272802682805
1040
0.0
1071
        0
1070
     0
1070
     1
1040
0.001
1071
        0
1002
}
  0
TEXT
  5
1953
  8
0
 62
     2
 10
12.44712116872194
 20
242.1912362559865
 30
0.0
 40
20.0
  1
DL 08/2012
  0
TEXT
  5
1954
  8
0
 10
217.4604618562138
 20
95.33525318159946
 30
0.0
 40
20.0
  1
Hügelbogen 2
  0
TEXT
  5
1955
  8
0
 10
190.6064135731334
 20
160.2079894711924
 30
0.0
 40
40.0
  1
628, 45°
  0
TEXT
  5
1956
  8
0
 10
216.1651119990398
 20
-43.40081275591319
 30
0.0
 40
40.0
  1
KaEli
  0
TEXT
  5
1957
  8
0
 10
212.214960041514
 20
-132.2792318002448
 30
0.0
 40
40.0
  1
NRE-381
  0
ENDBLK
  5
195F
  8
0
  0
BLOCK
  8
0
  2
*U2
 70
     1
 10
0.0
 20
0.0
 30
0.0
  3
*U2
  1

  0
ENDBLK
  5
1965
  8
0
  0
BLOCK
  8
0
  2
*U3
 70
     1
 10
0.0
 20
0.0
 30
0.0
  3
*U3
  1

  0
ENDBLK
  5
1968
  8
0
  0
BLOCK
  8
0
  2
*U4
 70
     1
 10
0.0
 20
0.0
 30
0.0
  3
*U4
  1

  0
ENDBLK
  5
196B
  8
0
  0
BLOCK
  8
0
  2
*U5
 70
     1
 10
0.0
 20
0.0
 30
0.0
  3
*U5
  1

  0
ENDBLK
  5
196E
  8
0
  0
BLOCK
  8
0
  2
*U6
 70
     1
 10
0.0
 20
0.0
 30
0.0
  3
*U6
  1

  0
SOLID
  5
1973
  8
0
 10
688.1774340537743
 20
-0.8234397237397388
 30
0.0
 11
642.380390736382
 21
16.84233250309535
 31
0.0
 12
688.1774340537743
 22
90.74174758584259
 32
0.0
 13
688.1774340537743
 23
90.74174758584259
 33
0.0
  0
SOLID
  5
1974
  8
0
 10
688.1774340537743
 20
-0.8234397237397388
 30
0.0
 11
688.1774340537743
 21
90.74174758584259
 31
0.0
 12
802.5502765363985
 22
275.2970277649733
 32
0.0
 13
802.5502765363985
 23
275.2970277649733
 33
0.0
  0
ENDBLK
  5
1976
  8
0
  0
BLOCK
  8
0
  2
*U7
 70
     1
 10
0.0
 20
0.0
 30
0.0
  3
*U7
  1

  0
SOLID
  5
1978
  8
0
 10
-642.380390736382
 20
-111.3872828171767
 30
0.0
 11
-611.6407475807564
 21
-185.5993462259971
 31
0.0
 12
-642.380390736382
 22
16.84233250309535
 32
0.0
 13
-642.380390736382
 23
16.84233250309535
 33
0.0
210
0.0
220
0.0
230
-1.0
  0
SOLID
  5
1979
  8
0
 10
-642.380390736382
 20
-111.3872828171767
 30
0.0
 11
-642.380390736382
 21
16.84233250309535
 31
0.0
 12
-688.1774340537745
 22
-0.8234397237397388
 32
0.0
 13
-688.1774340537745
 23
-0.8234397237397388
 33
0.0
210
0.0
220
0.0
230
-1.0
  0
ENDBLK
  5
197B
  8
0
  0
BLOCK
  8
0
  2
*U8
 70
     1
 10
0.0
 20
0.0
 30
0.0
  3
*U8
  1

  0
SOLID
  5
197D
  8
0
 10
-0.564716456707572
 20
-0.9880368378894673
 30
0.0
 11
113.9403054403012
 21
275.0776430719939
 31
0.0
 12
-0.564716456707572
 22
90.50647926915778
 32
0.0
 13
-0.564716456707572
 23
90.50647926915778
 33
0.0
210
0.0
220
0.0
230
-1.0
  0
SOLID
  5
197E
  8
0
 10
-0.564716456707572
 20
-0.9880368378894673
 30
0.0
 11
-0.564716456707572
 21
90.50647926915778
 31
0.0
 12
-46.35329704702121
 22
16.69965867367682
 32
0.0
 13
-46.35329704702121
 23
16.69965867367682
 33
0.0
210
0.0
220
0.0
230
-1.0
  0
ENDBLK
  5
1980
  8
0
  0
BLOCK
  8
0
  2
*U9
 70
     1
 10
0.0
 20
0.0
 30
0.0
  3
*U9
  1

  0
SOLID
  5
1982
  8
0
 10
46.35329704702104
 20
-111.3819341827853
 30
0.0
 11
0.5647164567073446
 21
-0.9880368378894732
 31
0.0
 12
46.35329704702104
 22
16.69965867367682
 32
0.0
 13
46.35329704702104
 23
16.69965867367682
 33
0.0
  0
SOLID
  5
1983
  8
0
 10
46.35329704702104
 20
-111.3819341827853
 30
0.0
 11
46.35329704702104
 21
16.69965867367682
 31
0.0
 12
77.18985552194346
 22
-185.7272802682805
 32
0.0
 13
77.18985552194346
 23
-185.7272802682805
 33
0.0
  0
ENDBLK
  5
1985
  8
0
  0
ENDSEC
  0
SECTION
  2
ENTITIES
  0
INSERT
  5
1801
  8
0
  2
*U2
 10
0.0
 20
0.0
 30
0.0
1001
ACAD
1002
{
1000
R14_HATCH_DATA
1000
1801
1011
1.0
1021
0.0
1031
0.0
1021
0.0
1031
0.0
1011
0.0
1021
1.0
1031
0.0
1021
1.0
1031
0.0
1011
0.0
1021
0.0
1031
1.0
1021
0.0
1031
1.0
1040
0.0
1010
0.0
1020
0.0
1030
1.0
1020
0.0
1030
1.0
1000
SOLID
1070
     1
1070
     1
1071
        0
1070
     0
1070
     1
1071
        0
1002
}
  0
INSERT
  5
1802
  8
0
  2
*U3
 10
0.0
 20
0.0
 30
0.0
1001
ACAD
1002
{
1000
R14_HATCH_DATA
1000
1802
1011
1.0
1021
0.0
1031
0.0
1021
0.0
1031
0.0
1011
0.0
1021
1.0
1031
0.0
1021
1.0
1031
0.0
1011
0.0
1021
0.0
1031
1.0
1021
0.0
1031
1.0
1040
0.0
1010
0.0
1020
0.0
1030
1.0
1020
0.0
1030
1.0
1000
SOLID
1070
     1
1070
     1
1071
        0
1070
     0
1070
     1
1071
        0
1002
}
  0
INSERT
  5
1803
  8
0
  2
*U4
 10
0.0
 20
0.0
 30
0.0
1001
ACAD
1002
{
1000
R14_HATCH_DATA
1000
1803
1011
1.0
1021
0.0
1031
0.0
1021
0.0
1031
0.0
1011
0.0
1021
1.0
1031
0.0
1021
1.0
1031
0.0
1011
0.0
1021
0.0
1031
1.0
1021
0.0
1031
1.0
1040
0.0
1010
0.0
1020
0.0
1030
1.0
1020
0.0
1030
1.0
1000
SOLID
1070
     1
1070
     1
1071
        0
1070
     0
1070
     1
1071
        0
1002
}
  0
INSERT
  5
1815
  8
0
  2
*U5
 10
0.0
 20
0.0
 30
0.0
1001
ACAD
1002
{
1000
R14_HATCH_DATA
1000
1815
1011
1.0
1021
0.0
1031
0.0
1021
0.0
1031
0.0
1011
0.0
1021
1.0
1031
0.0
1021
1.0
1031
0.0
1011
0.0
1021
0.0
1031
1.0
1021
0.0
1031
1.0
1040
0.0
1010
0.0
1020
0.0
1030
1.0
1020
0.0
1030
1.0
1000
SOLID
1070
     1
1070
     1
1071
        0
1070
     0
1070
     1
1071
        0
1002
}
  0
INSERT
  5
195A
  8
0
  2
NRE-381
 10
0.0
 20
0.0
 30
0.0
  0
ENDSEC
  0
EOF
