  0
SECTION
  2
HEADER
  9
$ACADVER
  1
AC1009
  9
$DWGCODEPAGE
  3
ansi_1252
  9
$INSBASE
 10
0.0
 20
0.0
 30
0.0
  9
$EXTMIN
 10
-99.22778767136674
 20
-173.6486284248925
 30
0.0
  9
$EXTMAX
 10
2476.353052417114
 20
1176.108349504039
 30
0.0
  9
$LIMMIN
 10
0.0
 20
0.0
  9
$LIMMAX
 10
12.0
 20
9.0
  9
$ORTHOMODE
 70
     0
  9
$REGENMODE
 70
     1
  9
$FILLMODE
 70
     1
  9
$QTEXTMODE
 70
     0
  9
$MIRRTEXT
 70
     1
  9
$DRAGMODE
 70
     2
  9
$LTSCALE
 40
1.0
  9
$OSMODE
 70
    37
  9
$ATTMODE
 70
     0
  9
$TEXTSIZE
 40
50.0
  9
$TRACEWID
 40
0.05
  9
$TEXTSTYLE
  7
STANDARD
  9
$CLAYER
  8
0
  9
$CELTYPE
  6
BYBLOCK
  9
$CECOLOR
 62
   256
  9
$DIMSCALE
 40
1.0
  9
$DIMASZ
 40
2.0
  9
$DIMEXO
 40
0.0625
  9
$DIMDLI
 40
0.38
  9
$DIMRND
 40
0.0
  9
$DIMDLE
 40
0.0
  9
$DIMEXE
 40
0.18
  9
$DIMTP
 40
0.0
  9
$DIMTM
 40
0.0
  9
$DIMTXT
 40
20.0
  9
$DIMCEN
 40
0.09
  9
$DIMTSZ
 40
0.0
  9
$DIMTOL
 70
     0
  9
$DIMLIM
 70
     0
  9
$DIMTIH
 70
     1
  9
$DIMTOH
 70
     1
  9
$DIMSE1
 70
     0
  9
$DIMSE2
 70
     0
  9
$DIMTAD
 70
     0
  9
$DIMZIN
 70
     0
  9
$DIMBLK
  1

  9
$DIMASO
 70
     1
  9
$DIMSHO
 70
     1
  9
$DIMPOST
  1
<>
  9
$DIMAPOST
  1

  9
$DIMALT
 70
     0
  9
$DIMALTD
 70
     2
  9
$DIMALTF
 40
25.4
  9
$DIMLFAC
 40
1.0
  9
$DIMTOFL
 70
     0
  9
$DIMTVP
 40
0.0
  9
$DIMTIX
 70
     0
  9
$DIMSOXD
 70
     0
  9
$DIMSAH
 70
     0
  9
$DIMBLK1
  1

  9
$DIMBLK2
  1

  9
$DIMSTYLE
  2
STANDARD
  9
$DIMCLRD
 70
     0
  9
$DIMCLRE
 70
     0
  9
$DIMCLRT
 70
     0
  9
$DIMTFAC
 40
1.0
  9
$DIMGAP
 40
0.09
  9
$LUNITS
 70
     2
  9
$LUPREC
 70
     4
  9
$SKETCHINC
 40
0.1
  9
$FILLETRAD
 40
0.5
  9
$AUNITS
 70
     0
  9
$AUPREC
 70
     0
  9
$MENU
  1
.
  9
$ELEVATION
 40
0.0
  9
$PELEVATION
 40
0.0
  9
$THICKNESS
 40
0.0
  9
$LIMCHECK
 70
     0
  9
$CHAMFERA
 40
0.5
  9
$CHAMFERB
 40
0.5
  9
$SKPOLY
 70
     0
  9
$TDCREATE
 40
2453353.800459144
  9
$TDUPDATE
 40
2456154.463498229
  9
$TDINDWG
 40
9762376.083277395
  9
$TDUSRTIMER
 40
9762376.083277395
  9
$USRTIMER
 70
     1
  9
$ANGBASE
 50
0.0
  9
$ANGDIR
 70
     0
  9
$PDMODE
 70
     0
  9
$PDSIZE
 40
0.0
  9
$PLINEWID
 40
9.0
  9
$COORDS
 70
     1
  9
$SPLFRAME
 70
     0
  9
$SPLINETYPE
 70
     6
  9
$SPLINESEGS
 70
     8
  9
$ATTDIA
 70
     0
  9
$ATTREQ
 70
     1
  9
$HANDLING
 70
     1
  9
$HANDSEED
  5
190F
  9
$SURFTAB1
 70
     6
  9
$SURFTAB2
 70
     6
  9
$SURFTYPE
 70
     6
  9
$SURFU
 70
     6
  9
$SURFV
 70
     6
  9
$UCSNAME
  2

  9
$UCSORG
 10
0.0
 20
0.0
 30
0.0
  9
$UCSXDIR
 10
1.0
 20
0.0
 30
0.0
  9
$UCSYDIR
 10
0.0
 20
1.0
 30
0.0
  9
$PUCSNAME
  2

  9
$PUCSORG
 10
0.0
 20
0.0
 30
0.0
  9
$PUCSXDIR
 10
1.0
 20
0.0
 30
0.0
  9
$PUCSYDIR
 10
0.0
 20
1.0
 30
0.0
  9
$USERI1
 70
     0
  9
$USERI2
 70
     0
  9
$USERI3
 70
     0
  9
$USERI4
 70
     0
  9
$USERI5
 70
     0
  9
$USERR1
 40
0.0
  9
$USERR2
 40
0.0
  9
$USERR3
 40
0.0
  9
$USERR4
 40
0.0
  9
$USERR5
 40
0.0
  9
$WORLDVIEW
 70
     1
  9
$SHADEDGE
 70
     3
  9
$SHADEDIF
 70
    70
  9
$TILEMODE
 70
     1
  9
$MAXACTVP
 70
    64
  9
$PLIMCHECK
 70
     0
  9
$PEXTMIN
 10
0.0
 20
0.0
 30
0.0
  9
$PEXTMAX
 10
12.0
 20
9.0
 30
0.0
  9
$PLIMMIN
 10
0.0
 20
0.0
  9
$PLIMMAX
 10
12.0
 20
9.0
  9
$UNITMODE
 70
     0
  9
$VISRETAIN
 70
     1
  9
$PLINEGEN
 70
     0
  9
$PSLTSCALE
 70
     1
  0
ENDSEC
  0
SECTION
  2
TABLES
  0
TABLE
  2
VPORT
 70
     1
  0
VPORT
  2
*ACTIVE
 70
     0
 10
0.0
 20
0.0
 11
1.0
 21
1.0
 12
1129.424003870089
 22
753.507396780398
 13
0.0
 23
0.0
 14
0.5
 24
0.5
 15
0.5
 25
0.5
 16
0.0
 26
0.0
 36
1.0
 17
0.0
 27
0.0
 37
0.0
 40
3560.600687074122
 41
1.972972972850329
 42
50.0
 43
0.0
 44
0.0
 50
0.0
 51
0.0
 71
    16
 72
   100
 73
     1
 74
     3
 75
     0
 76
     0
 77
     0
 78
     0
  0
ENDTAB
  0
TABLE
  2
LTYPE
 70
     1
  0
LTYPE
  2
CONTINUOUS
 70
     0
  3
Default Line
 72
    65
 73
     0
 40
0.0
  0
ENDTAB
  0
TABLE
  2
LAYER
 70
     4
  0
LAYER
  2
0
 70
     0
 62
     7
  6
CONTINUOUS
  0
LAYER
  2
DEFPOINTS
 70
     0
 62
     7
  6
CONTINUOUS
  0
LAYER
  2
DCC
 70
     0
 62
     4
  6
CONTINUOUS
  0
LAYER
  2
BEDIENRAUM
 70
     0
 62
     2
  6
CONTINUOUS
  0
ENDTAB
  0
TABLE
  2
STYLE
 70
     1
  0
STYLE
  2
STANDARD
 70
     0
 40
0.0
 41
1.0
 50
0.0
 71
     0
 42
0.2
  3
txt
  4

  0
ENDTAB
  0
TABLE
  2
VIEW
 70
     0
  0
ENDTAB
  0
TABLE
  2
UCS
 70
     0
  0
ENDTAB
  0
TABLE
  2
APPID
 70
     1
  0
APPID
  2
ACAD
 70
     0
  0
ENDTAB
  0
TABLE
  2
DIMSTYLE
 70
     1
  0
DIMSTYLE
  2
STANDARD
 70
     0
  3

  4

  5

  6

  7

 40
1.0
 41
0.18
 42
0.0625
 43
0.38
 44
0.18
 45
0.0
 46
0.0
 47
0.0
 48
0.0
140
0.18
141
0.09
142
0.0
143
25.4
144
1.0
145
0.0
146
1.0
147
0.09
 71
     0
 72
     0
 73
     1
 74
     1
 75
     0
 76
     0
 77
     0
 78
     0
170
     0
171
     2
172
     0
173
     0
174
     0
175
     0
176
     0
177
     0
178
     0
  0
ENDTAB
  0
ENDSEC
  0
SECTION
  2
BLOCKS
  0
BLOCK
  8
0
  2
$MODEL_SPACE
 70
     0
 10
0.0
 20
0.0
 30
0.0
  3
$MODEL_SPACE
  1

  0
ENDBLK
  5
21
  8
0
  0
BLOCK
 67
     1
  8
0
  2
$PAPER_SPACE
 70
     0
 10
0.0
 20
0.0
 30
0.0
  3
$PAPER_SPACE
  1

  0
ENDBLK
  5
76
 67
     1
  8
0
  0
BLOCK
  8
0
  2
*D0
 70
     1
 10
0.0
 20
0.0
 30
0.0
  3
*D0
  1

  0
POINT
  5
1436
  8
DEFPOINTS
  6
BYBLOCK
 62
     0
 10
2476.353052417114
 20
76.04763296463204
 30
0.0
  0
POINT
  5
1437
  8
DEFPOINTS
  6
BYBLOCK
 62
     0
 10
446.318046088481
 20
-19.58829346025982
 30
0.0
  0
LINE
  5
1438
  8
0
  6
BYBLOCK
 62
     0
 10
2476.353052417114
 20
75.98513296463204
 30
0.0
 11
2476.353052417114
 21
-126.8052301197556
 31
0.0
  0
LINE
  5
1439
  8
0
  6
BYBLOCK
 62
     0
 10
446.318046088481
 20
-19.65079346025982
 30
0.0
 11
446.318046088481
 21
-126.8052301197556
 31
0.0
  0
LINE
  5
143A
  8
0
  6
BYBLOCK
 62
     0
 10
2474.353052417114
 20
-126.6252301197556
 30
0.0
 11
1516.425549252797
 21
-126.6252301197556
 31
0.0
  0
LINE
  5
143B
  8
0
  6
BYBLOCK
 62
     0
 10
448.318046088481
 20
-126.6252301197556
 30
0.0
 11
1406.245549252797
 21
-126.6252301197556
 31
0.0
  0
SOLID
  5
143C
  8
0
  6
BYBLOCK
 62
     0
 10
2476.353052417114
 20
-126.6252301197556
 30
0.0
 11
2474.353052417114
 21
-126.2918967864222
 31
0.0
 12
2474.353052417114
 22
-126.958563453089
 32
0.0
 13
2474.353052417114
 23
-126.958563453089
 33
0.0
  0
SOLID
  5
143D
  8
0
  6
BYBLOCK
 62
     0
 10
446.318046088481
 20
-126.6252301197556
 30
0.0
 11
448.318046088481
 21
-126.2918967864222
 31
0.0
 12
448.318046088481
 22
-126.958563453089
 32
0.0
 13
448.318046088481
 23
-126.958563453089
 33
0.0
  0
TEXT
  5
143E
  8
0
  6
BYBLOCK
 62
     0
 10
1406.335549252797
 20
-136.6252301197556
 30
0.0
 40
20.0
  1
2030.04
  0
ENDBLK
  5
18BA
  8
0
  0
BLOCK
  8
0
  2
*X1
 70
     1
 10
0.0
 20
0.0
 30
0.0
  3
*X1
  1

  0
TEXT
  5
1520
  8
DCC
  6
BYBLOCK
 10
2190.982055468618
 20
71.79363352731667
 30
0.0
 40
20.00000000000001
  1
Spax-
  0
TEXT
  5
1521
  8
DCC
  6
BYBLOCK
 10
2190.982055468618
 20
38.46030019398331
 30
0.0
 40
20.00000000000001
  1
Booster
  0
ENDBLK
  5
18BC
  8
0
  0
BLOCK
  8
0
  2
*D2
 70
     1
 10
0.0
 20
0.0
 30
0.0
  3
*D2
  1

  0
POINT
  5
15A8
  8
DEFPOINTS
  6
BYBLOCK
 62
     0
 10
446.318046088481
 20
-19.58829346025982
 30
0.0
  0
POINT
  5
15A9
  8
DEFPOINTS
  6
BYBLOCK
 62
     0
 10
247.8624707457475
 20
327.7089633895239
 30
0.0
  0
LINE
  5
15AA
  8
0
  6
BYBLOCK
 62
     0
 10
446.2637808920982
 20
-19.61930214390712
 30
0.0
 11
384.7219359161188
 21
-54.78607070160965
 31
0.0
  0
LINE
  5
15AB
  8
0
  6
BYBLOCK
 62
     0
 10
247.8082055493647
 20
327.6779547058766
 30
0.0
 11
186.2663605733853
 21
292.511186148174
 31
0.0
  0
LINE
  5
15AC
  8
0
  6
BYBLOCK
 62
     0
 10
383.8859418049876
 20
-52.96027940845649
 30
0.0
 11
315.4634208161966
 21
66.77913232192768
 31
0.0
  0
LINE
  5
15AD
  8
0
  6
BYBLOCK
 62
     0
 10
187.4149222156814
 20
290.8640048728294
 30
0.0
 11
255.8374432044723
 21
171.1245931424452
 31
0.0
  0
SOLID
  5
15AE
  8
0
  6
BYBLOCK
 62
     0
 10
384.8782196817012
 20
-54.69676569270541
 30
0.0
 11
384.1753561856958
 21
-52.79489976233751
 31
0.0
 12
383.5965274242794
 22
-53.12565905457547
 32
0.0
 13
383.5965274242794
 23
-53.12565905457547
 33
0.0
  0
SOLID
  5
15AF
  8
0
  6
BYBLOCK
 62
     0
 10
186.4226443389677
 20
292.6004911570782
 30
0.0
 11
187.7043365963896
 21
291.0293845189483
 31
0.0
 12
187.1255078349732
 22
290.6986252267104
 32
0.0
 13
187.1255078349732
 23
290.6986252267104
 33
0.0
  0
TEXT
  5
15B0
  8
0
  6
BYBLOCK
 62
     0
 10
225.8504320103345
 20
108.9518627321864
 30
0.0
 40
20.0
  1
400.0000
  0
ENDBLK
  5
18BE
  8
0
  0
BLOCK
  8
0
  2
*D3
 70
     1
 10
0.0
 20
0.0
 30
0.0
  3
*D3
  1

  0
POINT
  5
15B5
  8
DEFPOINTS
  6
BYBLOCK
 62
     0
 10
2476.353052417114
 20
476.047632964632
 30
0.0
  0
POINT
  5
15B6
  8
DEFPOINTS
  6
BYBLOCK
 62
     0
 10
2476.353052417114
 20
76.04763296463204
 30
0.0
  0
LINE
  5
15B7
  8
0
  6
BYBLOCK
 62
     0
 10
2476.415552417114
 20
476.047632964632
 30
0.0
 11
2584.602208380495
 21
476.047632964632
 31
0.0
  0
LINE
  5
15B8
  8
0
  6
BYBLOCK
 62
     0
 10
2476.415552417114
 20
76.04763296463204
 30
0.0
 11
2584.602208380495
 21
76.04763296463204
 31
0.0
  0
LINE
  5
15B9
  8
0
  6
BYBLOCK
 62
     0
 10
2584.422208380495
 20
474.047632964632
 30
0.0
 11
2584.422208380495
 21
336.137632964632
 31
0.0
  0
LINE
  5
15BA
  8
0
  6
BYBLOCK
 62
     0
 10
2584.422208380495
 20
78.04763296463204
 30
0.0
 11
2584.422208380495
 21
215.957632964632
 31
0.0
  0
SOLID
  5
15BB
  8
0
  6
BYBLOCK
 62
     0
 10
2584.422208380495
 20
476.047632964632
 30
0.0
 11
2584.088875047162
 21
474.047632964632
 31
0.0
 12
2584.755541713829
 22
474.047632964632
 32
0.0
 13
2584.755541713829
 23
474.047632964632
 33
0.0
  0
SOLID
  5
15BC
  8
0
  6
BYBLOCK
 62
     0
 10
2584.422208380495
 20
76.04763296463204
 30
0.0
 11
2584.088875047162
 21
78.04763296463204
 31
0.0
 12
2584.755541713829
 22
78.04763296463204
 32
0.0
 13
2584.755541713829
 23
78.04763296463204
 33
0.0
  0
TEXT
  5
15BD
  8
0
  6
BYBLOCK
 62
     0
 10
2524.622208380495
 20
266.047632964632
 30
0.0
 40
20.0
  1
400.0000
  0
ENDBLK
  5
18C0
  8
0
  0
BLOCK
  8
0
  2
*D4
 70
     1
 10
0.0
 20
0.0
 30
0.0
  3
*D4
  1

  0
POINT
  5
15C2
  8
DEFPOINTS
  6
BYBLOCK
 62
     0
 10
2476.353052417114
 20
476.047632964632
 30
0.0
  0
POINT
  5
15C3
  8
DEFPOINTS
  6
BYBLOCK
 62
     0
 10
504.7925831770067
 20
476.0476329646323
 30
0.0
  0
LINE
  5
15C4
  8
0
  6
BYBLOCK
 62
     0
 10
2476.353052417114
 20
476.110132964632
 30
0.0
 11
2476.353052417114
 21
565.9186727325898
 31
0.0
  0
LINE
  5
15C5
  8
0
  6
BYBLOCK
 62
     0
 10
504.7925831770067
 20
476.1101329646323
 30
0.0
 11
504.7925831770067
 21
565.9186727325898
 31
0.0
  0
LINE
  5
15C6
  8
0
  6
BYBLOCK
 62
     0
 10
2474.353052417114
 20
565.7386727325899
 30
0.0
 11
1562.329484463727
 21
565.7386727325899
 31
0.0
  0
LINE
  5
15C7
  8
0
  6
BYBLOCK
 62
     0
 10
506.7925831770067
 20
565.7386727325899
 30
0.0
 11
1418.816151130394
 21
565.7386727325899
 31
0.0
  0
SOLID
  5
15C8
  8
0
  6
BYBLOCK
 62
     0
 10
2476.353052417114
 20
565.7386727325899
 30
0.0
 11
2474.353052417114
 21
566.0720060659232
 31
0.0
 12
2474.353052417114
 22
565.4053393992565
 32
0.0
 13
2474.353052417114
 23
565.4053393992565
 33
0.0
  0
SOLID
  5
15C9
  8
0
  6
BYBLOCK
 62
     0
 10
504.7925831770067
 20
565.7386727325899
 30
0.0
 11
506.7925831770067
 21
566.0720060659232
 31
0.0
 12
506.7925831770067
 22
565.4053393992565
 32
0.0
 13
506.7925831770067
 23
565.4053393992565
 33
0.0
  0
TEXT
  5
15CA
  8
0
  6
BYBLOCK
 62
     0
 10
1418.87281779706
 20
555.7386727325899
 30
0.0
 40
20.0
  1
1971.5605
  0
ENDBLK
  5
18C2
  8
0
  0
BLOCK
  8
0
  2
*D5
 70
     1
 10
0.0
 20
0.0
 30
0.0
  3
*D5
  1

  0
POINT
  5
15CF
  8
DEFPOINTS
  6
BYBLOCK
 62
     0
 10
2476.353052417114
 20
76.04763296463204
 30
0.0
  0
POINT
  5
15D0
  8
DEFPOINTS
  6
BYBLOCK
 62
     0
 10
247.8624707457475
 20
327.7089633895239
 30
0.0
  0
LINE
  5
15D1
  8
0
  6
BYBLOCK
 62
     0
 10
2476.360065903199
 20
76.10973820606092
 30
0.0
 11
2493.719887038435
 21
229.8329893470132
 31
0.0
  0
LINE
  5
15D2
  8
0
  6
BYBLOCK
 62
     0
 10
247.8694842318322
 20
327.7710686309528
 30
0.0
 11
265.2293053670678
 21
481.4943197719054
 31
0.0
  0
LINE
  5
15D3
  8
0
  6
BYBLOCK
 62
     0
 10
2491.712320472786
 20
229.8785578064072
 30
0.0
 11
1459.038537939459
 21
346.4974298558147
 31
0.0
  0
LINE
  5
15D4
  8
0
  6
BYBLOCK
 62
     0
 10
267.1964742528683
 20
481.091025121881
 30
0.0
 11
1299.870256786195
 21
364.4721530724735
 31
0.0
  0
SOLID
  5
15D5
  8
0
  6
BYBLOCK
 62
     0
 10
2493.699688198511
 20
229.654126251698
 30
0.0
 11
2491.749725731905
 21
230.2097857606947
 31
0.0
 12
2491.674915213668
 22
229.5473298521198
 32
0.0
 13
2491.674915213668
 23
229.5473298521198
 33
0.0
  0
SOLID
  5
15D6
  8
0
  6
BYBLOCK
 62
     0
 10
265.2091065271439
 20
481.3154566765902
 30
0.0
 11
267.2338795119865
 21
481.4222530761685
 31
0.0
 12
267.1590689937501
 22
480.7597971675935
 32
0.0
 13
267.1590689937501
 23
480.7597971675935
 33
0.0
  0
TEXT
  5
15D7
  8
0
  6
BYBLOCK
 62
     0
 10
1299.454397362827
 20
345.4847914641441
 30
0.0
 40
20.0
  1
2242.6555
  0
ENDBLK
  5
18C4
  8
0
  0
BLOCK
  8
0
  2
*D6
 70
     1
 10
0.0
 20
0.0
 30
0.0
  3
*D6
  1

  0
POINT
  5
15E8
  8
DEFPOINTS
  6
BYBLOCK
 62
     0
 10
2476.353052417114
 20
476.047632964632
 30
0.0
  0
POINT
  5
15E9
  8
DEFPOINTS
  6
BYBLOCK
 62
     0
 10
446.318046088481
 20
-19.58829346025982
 30
0.0
  0
LINE
  5
15EA
  8
0
  6
BYBLOCK
 62
     0
 10
2476.338228387891
 20
476.1083495040392
 30
0.0
 11
2465.836427652318
 21
519.1218236815057
 31
0.0
  0
LINE
  5
15EB
  8
0
  6
BYBLOCK
 62
     0
 10
446.3032220592576
 20
-19.52757692085266
 30
0.0
 11
435.8014213236841
 21
23.48589725661416
 31
0.0
  0
LINE
  5
15EC
  8
0
  6
BYBLOCK
 62
     0
 10
2465.879120856481
 20
518.9469600480131
 30
0.0
 11
435.8441145278476
 21
23.3110336231215
 31
0.0
  0
SOLID
  5
15ED
  8
0
  6
BYBLOCK
 62
     0
 10
2465.879120856481
 20
518.9469600480131
 30
0.0
 11
2463.85713010626
 21
518.7964126563685
 31
0.0
 12
2464.015253084643
 22
518.1487695693585
 32
0.0
 13
2464.015253084643
 23
518.1487695693585
 33
0.0
  0
SOLID
  5
15EE
  8
0
  6
BYBLOCK
 62
     0
 10
435.8441145278476
 20
23.3110336231215
 30
0.0
 11
437.7079822996856
 21
24.10922410177606
 31
0.0
 12
437.8661052780688
 22
23.46158101476606
 32
0.0
 13
437.8661052780688
 23
23.46158101476606
 33
0.0
  0
TEXT
  5
15EF
  8
0
  6
BYBLOCK
 62
     0
 10
1402.053052417114
 20
235.4208295568914
 30
0.0
 40
20.0
  1
2089.6644
  0
ENDBLK
  5
18C6
  8
0
  0
BLOCK
  8
0
  2
*D7
 70
     1
 10
0.0
 20
0.0
 30
0.0
  3
*D7
  1

  0
TEXT
  5
15F4
  8
0
  6
BYBLOCK
 62
     0
 10
636.8264989381414
 20
507.2137166228596
 30
0.0
 40
20.0
  1
30°
  0
POINT
  5
15F5
  8
DEFPOINTS
  6
BYBLOCK
 62
     0
 10
504.7925831770067
 20
476.0476329646323
 30
0.0
  0
POINT
  5
15F6
  8
DEFPOINTS
  6
BYBLOCK
 62
     0
 10
247.8624707457475
 20
327.7089633895239
 30
0.0
  0
POINT
  5
15F7
  8
DEFPOINTS
  6
BYBLOCK
 62
     0
 10
504.7925831770067
 20
476.0476329646323
 30
0.0
  0
POINT
  5
15F8
  8
DEFPOINTS
  6
BYBLOCK
 62
     0
 10
2476.353052417114
 20
476.047632964632
 30
0.0
  0
SOLID
  5
15F9
  8
0
  6
BYBLOCK
 62
     0
 10
663.8461166676386
 20
476.0476329646323
 30
0.0
 11
663.5002155397989
 21
478.0454977050164
 31
0.0
 12
664.166869030077
 22
478.0496891659167
 32
0.0
 13
664.166869030077
 23
478.0496891659167
 33
0.0
  0
SOLID
  5
15FA
  8
0
  6
BYBLOCK
 62
     0
 10
642.536983741573
 20
555.5743997099484
 30
0.0
 11
643.8157915364108
 21
554.0009443610511
 31
0.0
 12
643.2363569478581
 22
553.6712475275306
 32
0.0
 13
643.2363569478581
 23
553.6712475275306
 33
0.0
  0
LINE
  5
15FB
  8
0
  6
BYBLOCK
 62
     0
 10
504.8467097647432
 20
476.0788829646323
 30
0.0
 11
642.6928683142542
 21
555.6643997099484
 31
0.0
  0
ARC
  5
15FC
  8
0
  6
BYBLOCK
 62
     0
 10
504.7925831770067
 20
476.0476329646323
 30
0.0
 40
159.053533490632
 50
0.7204638052906576
 51
11.26699801965015
  0
ARC
  5
15FD
  8
0
  6
BYBLOCK
 62
     0
 10
504.7925831770067
 20
476.0476329646323
 30
0.0
 40
159.053533490632
 50
18.79946197129487
 51
29.27953619470934
  0
ENDBLK
  5
18C8
  8
0
  0
BLOCK
  8
0
  2
*D8
 70
     1
 10
0.0
 20
0.0
 30
0.0
  3
*D8
  1

  0
TEXT
  5
1611
  8
0
  6
BYBLOCK
 62
     0
 10
2406.341163672432
 20
-46.72484236684186
 30
0.0
 40
20.0
  1
45°
  0
POINT
  5
1612
  8
DEFPOINTS
  6
BYBLOCK
 62
     0
 10
2380.717125992221
 20
-19.5882934602605
 30
0.0
  0
POINT
  5
1613
  8
DEFPOINTS
  6
BYBLOCK
 62
     0
 10
2476.353052417114
 20
76.04763296463204
 30
0.0
  0
POINT
  5
1614
  8
DEFPOINTS
  6
BYBLOCK
 62
     0
 10
2476.353052417114
 20
476.047632964632
 30
0.0
  0
POINT
  5
1615
  8
DEFPOINTS
  6
BYBLOCK
 62
     0
 10
2476.353052417114
 20
76.04763296463204
 30
0.0
  0
SOLID
  5
1616
  8
0
  6
BYBLOCK
 62
     0
 10
2390.040736544802
 20
-10.26468290767938
 30
0.0
 11
2391.700251859055
 21
-11.42963785653805
 31
0.0
 12
2391.232725101898
 22
-11.90488850176301
 32
0.0
 13
2391.232725101898
 23
-11.90488850176301
 33
0.0
  0
SOLID
  5
1617
  8
0
  6
BYBLOCK
 62
     0
 10
2476.353052417114
 20
-46.01641474182173
 30
0.0
 11
2474.350388727178
 21
-46.33335204811913
 31
0.0
 12
2474.355850340808
 22
-45.6667077537453
 32
0.0
 13
2474.355850340808
 23
-45.6667077537453
 33
0.0
  0
LINE
  5
1618
  8
0
  6
BYBLOCK
 62
     0
 10
2476.353052417114
 20
75.98513296463204
 30
0.0
 11
2476.353052417114
 21
-46.07891474182173
 31
0.0
  0
ARC
  5
1619
  8
0
  6
BYBLOCK
 62
     0
 10
2476.353052417114
 20
76.04763296463204
 30
0.0
 40
122.0640477064538
 50
225.9387927324588
 51
237.2689628668784
  0
ARC
  5
161A
  8
0
  6
BYBLOCK
 62
     0
 10
2476.353052417114
 20
76.04763296463204
 30
0.0
 40
122.0640477064538
 50
259.0011298827311
 51
269.0612072675411
  0
ENDBLK
  5
18CA
  8
0
  0
BLOCK
  8
0
  2
NRE-319
 70
     0
 10
0.0
 20
0.0
 30
0.0
  3
NRE-319
  1

  0
LINE
  5
1892
  8
0
  6
BYBLOCK
 10
-99.22778767136674
 20
173.6486284248919
 30
0.0
 11
99.2277876713668
 21
-173.6486284248919
 31
0.0
  0
LINE
  5
1893
  8
0
  6
BYBLOCK
 10
99.2277876713668
 20
-173.6486284248919
 30
0.0
 11
2033.626867575108
 21
-173.6486284248925
 31
0.0
  0
LINE
  5
1894
  8
0
  6
BYBLOCK
 10
2129.262794
 20
-78.01270199999999
 30
0.0
 11
2129.262794
 21
321.987298
 31
0.0
  0
LINE
  5
1895
  8
0
  6
BYBLOCK
 10
2129.262794
 20
-78.01270199999999
 30
0.0
 11
2033.626867575107
 21
-173.6486284248925
 31
0.0
  0
LINE
  5
1896
  8
0
  6
BYBLOCK
 10
2129.262794
 20
321.987298
 30
0.0
 11
157.7023247598925
 21
321.9872980000003
 31
0.0
  0
LINE
  5
1897
  8
0
  6
BYBLOCK
 10
-99.22778767136674
 20
173.6486284248919
 30
0.0
 11
157.7023247598925
 21
321.9872980000003
 31
0.0
  0
POLYLINE
  5
1898
  8
0
  6
BYBLOCK
 66
     1
 10
0.0
 20
0.0
 30
0.0
 40
9.0
 41
9.0
  0
VERTEX
  5
18D1
  8
0
  6
BYBLOCK
 10
0.0
 20
-0.0000000000000284
 30
0.0
  0
VERTEX
  5
18D2
  8
0
  6
BYBLOCK
 10
8.660253999999895
 20
4.999999999999972
 30
0.0
  0
SEQEND
  5
18D0
  8
0
  6
BYBLOCK
  0
POLYLINE
  5
1899
  8
0
  6
BYBLOCK
 66
     1
 10
0.0
 20
0.0
 30
0.0
 40
9.0
 41
9.0
  0
VERTEX
  5
18D4
  8
0
  6
BYBLOCK
 10
8.660253999999895
 20
4.999999999999972
 30
0.0
  0
VERTEX
  5
18D5
  8
0
  6
BYBLOCK
 10
279.262794
 20
97.98729799999995
 30
0.0
  0
VERTEX
  5
18D6
  8
0
  6
BYBLOCK
 10
545.262794
 20
121.987298
 30
0.0
  0
SEQEND
  5
18D3
  8
0
  6
BYBLOCK
  0
POLYLINE
  5
189A
  8
0
  6
BYBLOCK
 66
     1
 10
0.0
 20
0.0
 30
0.0
 40
9.0
 41
9.0
  0
VERTEX
  5
18D8
  8
0
  6
BYBLOCK
 10
545.262794
 20
121.987298
 30
0.0
  0
VERTEX
  5
18D9
  8
0
  6
BYBLOCK
 10
777.2627939999998
 20
121.987298
 30
0.0
  0
VERTEX
  5
18DA
  8
0
  6
BYBLOCK
 10
1489.262794
 20
121.987298
 30
0.0
  0
SEQEND
  5
18D7
  8
0
  6
BYBLOCK
  0
POLYLINE
  5
189B
  8
0
  6
BYBLOCK
 66
     1
 10
0.0
 20
0.0
 30
0.0
 40
9.0
 41
9.0
  0
VERTEX
  5
18DC
  8
0
  6
BYBLOCK
 10
2129.262794
 20
121.987298
 30
0.0
  0
VERTEX
  5
18DD
  8
0
  6
BYBLOCK
 10
1489.262794
 20
121.987298
 30
0.0
  0
SEQEND
  5
18DB
  8
0
  6
BYBLOCK
  0
POLYLINE
  5
189C
  8
0
  6
BYBLOCK
 66
     1
 10
0.0
 20
0.0
 30
0.0
 40
9.0
 41
9.0
  0
VERTEX
  5
18DF
  8
0
  6
BYBLOCK
 10
2023.088661
 20
66.62220899999997
 30
0.0
  0
VERTEX
  5
18E0
  8
0
  6
BYBLOCK
 10
1173.088659
 20
66.62220799999997
 30
0.0
  0
SEQEND
  5
18DE
  8
0
  6
BYBLOCK
  0
POLYLINE
  5
189D
  8
0
  6
BYBLOCK
 66
     1
 10
0.0
 20
0.0
 30
0.0
 40
9.0
 41
9.0
  0
VERTEX
  5
18E2
  8
0
  6
BYBLOCK
 10
2067.575524
 20
34.12131999999997
 30
0.0
  0
VERTEX
  5
18E3
  8
0
  6
BYBLOCK
 10
1357.247708
 20
34.12131999999997
 30
0.0
  0
SEQEND
  5
18E1
  8
0
  6
BYBLOCK
  0
POLYLINE
  5
189E
  8
0
  6
BYBLOCK
 66
     1
 10
0.0
 20
0.0
 30
0.0
 40
9.0
 41
9.0
  0
VERTEX
  5
18E5
  8
0
  6
BYBLOCK
 10
2101.795524
 20
6.121319999999969
 30
0.0
  0
VERTEX
  5
18E6
  8
0
  6
BYBLOCK
 10
1491.795517
 20
6.121319999999969
 30
0.0
  0
VERTEX
  5
18E7
  8
0
  6
BYBLOCK
 10
1217.795517
 20
6.121319999999969
 30
0.0
  0
SEQEND
  5
18E4
  8
0
  6
BYBLOCK
  0
POLYLINE
  5
189F
  8
0
  6
BYBLOCK
 66
     1
 10
0.0
 20
0.0
 30
0.0
 40
9.0
 41
9.0
  0
VERTEX
  5
18E9
  8
0
  6
BYBLOCK
 10
1953.295524
 20
6.121319999999969
 30
0.0
  0
VERTEX
  5
18EA
  8
0
  6
BYBLOCK
 10
1819.075524
 20
34.12131999999997
 30
0.0
  0
SEQEND
  5
18E8
  8
0
  6
BYBLOCK
  0
POLYLINE
  5
18A0
  8
0
  6
BYBLOCK
 66
     1
 10
0.0
 20
0.0
 30
0.0
 40
9.0
 41
9.0
  0
VERTEX
  5
18EC
  8
0
  6
BYBLOCK
 10
1217.795517
 20
6.121319999999969
 30
0.0
  0
VERTEX
  5
18ED
  8
0
  6
BYBLOCK
 10
767.7955169999998
 20
6.121319999999969
 30
0.0
  0
SEQEND
  5
18EB
  8
0
  6
BYBLOCK
  0
POLYLINE
  5
18A1
  8
0
  6
BYBLOCK
 66
     1
 10
0.0
 20
0.0
 30
0.0
 40
9.0
 41
9.0
  0
VERTEX
  5
18EF
  8
0
  6
BYBLOCK
 10
1423.295517
 20
6.121319999999969
 30
0.0
  0
VERTEX
  5
18F0
  8
0
  6
BYBLOCK
 10
777.2627939999998
 20
121.987298
 30
0.0
  0
SEQEND
  5
18EE
  8
0
  6
BYBLOCK
  0
POLYLINE
  5
18A2
  8
0
  6
BYBLOCK
 66
     1
 10
0.0
 20
0.0
 30
0.0
  0
VERTEX
  5
18F2
  8
0
  6
BYBLOCK
 10
1173.088659
 20
66.62220799999997
 30
0.0
 40
9.0
 41
9.0
  0
VERTEX
  5
18F3
  8
0
  6
BYBLOCK
 10
1085.961347874374
 20
66.62220799999997
 30
0.0
  0
SEQEND
  5
18F1
  8
0
  6
BYBLOCK
  0
POLYLINE
  5
18A3
  8
0
  6
BYBLOCK
 66
     1
 10
0.0
 20
0.0
 30
0.0
  0
VERTEX
  5
18F5
  8
0
  6
BYBLOCK
 10
1357.247708
 20
34.12131999999997
 30
0.0
 40
9.0
 41
9.0
  0
VERTEX
  5
18F6
  8
0
  6
BYBLOCK
 10
1267.176209535992
 20
34.12131999999997
 30
0.0
  0
SEQEND
  5
18F4
  8
0
  6
BYBLOCK
  0
POLYLINE
  5
18A4
  8
0
  6
BYBLOCK
 66
     1
 10
0.0
 20
0.0
 30
0.0
 40
9.0
 41
9.0
  0
VERTEX
  5
18F8
  8
0
  6
BYBLOCK
 10
1219.185517
 20
-7.878680000000031
 30
0.0
  0
VERTEX
  5
18F9
  8
0
  6
BYBLOCK
 10
1286.295517
 20
6.121319999999969
 30
0.0
  0
SEQEND
  5
18F7
  8
0
  6
BYBLOCK
  0
POLYLINE
  5
18A5
  8
0
  6
BYBLOCK
 66
     1
 10
0.0
 20
0.0
 30
0.0
 40
9.0
 41
9.0
  0
VERTEX
  5
18FB
  8
0
  6
BYBLOCK
 10
1219.185517
 20
-7.878680000000031
 30
0.0
  0
VERTEX
  5
18FC
  8
0
  6
BYBLOCK
 10
917.7955169999998
 20
-53.87867999999993
 30
0.0
  0
VERTEX
  5
18FD
  8
0
  6
BYBLOCK
 10
617.7955169999998
 20
-53.87867999999993
 30
0.0
  0
SEQEND
  5
18FA
  8
0
  6
BYBLOCK
  0
POLYLINE
  5
18A6
  8
0
  6
BYBLOCK
 66
     1
 10
0.0
 20
0.0
 30
0.0
  0
VERTEX
  5
18FF
  8
0
  6
BYBLOCK
 10
43.48076199999986
 20
-15.31089000000014
 30
0.0
 40
9.0
 41
9.0
  0
VERTEX
  5
1900
  8
0
  6
BYBLOCK
 10
292.7820319999998
 20
69.68911000000006
 30
0.0
 40
9.0
 41
9.0
  0
VERTEX
  5
1901
  8
0
  6
BYBLOCK
 10
551.1269519999998
 20
86.14444999999998
 30
0.0
 40
9.0
 41
9.0
  0
VERTEX
  5
1902
  8
0
  6
BYBLOCK
 10
764.1269519999998
 20
86.14444999999998
 30
0.0
 40
9.0
 41
9.0
  0
VERTEX
  5
1903
  8
0
  6
BYBLOCK
 10
977.1113871177747
 20
86.14444999999998
 30
0.0
  0
SEQEND
  5
18FE
  8
0
  6
BYBLOCK
  0
POLYLINE
  5
18A7
  8
0
  6
BYBLOCK
 66
     1
 10
0.0
 20
0.0
 30
0.0
 40
9.0
 41
9.0
  0
VERTEX
  5
1905
  8
0
  6
BYBLOCK
 10
58.48076199999986
 20
-41.29165200000003
 30
0.0
  0
VERTEX
  5
1906
  8
0
  6
BYBLOCK
 10
297.7820319999998
 20
42.70834799999997
 30
0.0
  0
VERTEX
  5
1907
  8
0
  6
BYBLOCK
 10
550.7820319999998
 20
55.70834799999997
 30
0.0
  0
VERTEX
  5
1908
  8
0
  6
BYBLOCK
 10
765.5169519999997
 20
72.14444999999998
 30
0.0
  0
VERTEX
  5
1909
  8
0
  6
BYBLOCK
 10
832.6269519999998
 20
86.14444999999998
 30
0.0
  0
SEQEND
  5
1904
  8
0
  6
BYBLOCK
  0
TEXT
  5
18A8
  8
0
  6
BYBLOCK
 10
230.6577339740039
 20
-144.8545629502191
 30
0.0
 40
20.0
  1
Zeche Mauritz Humboldt
  0
TEXT
  5
18A9
  8
0
  6
BYBLOCK
 10
-18.41640878142954
 20
114.438006174668
 30
0.0
 40
20.0
  1
fN1t
  0
TEXT
  5
18AA
  8
0
  6
BYBLOCK
 10
2044.428414552032
 20
195.7485643913899
 30
0.0
 40
20.0
  1
fN1t
  0
POLYLINE
  5
18AB
  8
DCC
  6
BYBLOCK
 66
     1
 10
0.0
 20
0.0
 30
0.0
 70
     1
  0
VERTEX
  5
190B
  8
DCC
  6
BYBLOCK
 10
1829.841460793505
 20
-45.66175858695313
 30
0.0
  0
VERTEX
  5
190C
  8
DCC
  6
BYBLOCK
 10
1992.058979408582
 20
-45.66175858695313
 30
0.0
  0
VERTEX
  5
190D
  8
DCC
  6
BYBLOCK
 10
1992.058979408582
 20
-124.8545629502191
 30
0.0
  0
VERTEX
  5
190E
  8
DCC
  6
BYBLOCK
 10
1829.841460793505
 20
-124.8545629502191
 30
0.0
  0
SEQEND
  5
190A
  8
DCC
  6
BYBLOCK
  0
INSERT
  5
18AC
  8
DCC
  6
BYBLOCK
  2
*X1
 10
-347.0902584171142
 20
-154.060334964632
 30
0.0
  0
LINE
  5
18AD
  8
BEDIENRAUM
  6
BYBLOCK
 10
157.7023247598925
 20
321.9872980000003
 30
0.0
 11
157.7023247598925
 21
1021.987298
 31
0.0
  0
LINE
  5
18AE
  8
BEDIENRAUM
  6
BYBLOCK
 10
2129.247969970776
 20
322.0480145394071
 30
0.0
 11
2129.247969970776
 21
1022.048014539407
 31
0.0
  0
LINE
  5
18AF
  8
BEDIENRAUM
  6
BYBLOCK
 10
2129.247969970776
 20
1022.048014539407
 30
0.0
 11
157.7023247598925
 21
1021.987298
 31
0.0
  0
TEXT
  5
18B0
  8
0
  6
BYBLOCK
 62
     2
 10
185.74455972598
 20
255.2176381475631
 30
0.0
 40
20.0
  1
DL 08/2012
  0
TEXT
  5
18B1
  8
0
  6
BYBLOCK
 10
985.0676411803086
 20
243.473046630948
 30
0.0
 40
50.0
  1
2228
  0
TEXT
  5
18B2
  8
0
  6
BYBLOCK
 10
1465.908119225967
 20
247.4780862800338
 30
0.0
 40
50.0
  1
KaEli
  0
TEXT
  5
18B3
  8
0
  6
BYBLOCK
 10
1427.35575736733
 20
152.4740516998224
 30
0.0
 40
50.0
  1
NRE-319
  0
ENDBLK
  5
18CC
  8
0
  0
ENDSEC
  0
SECTION
  2
ENTITIES
  0
INSERT
  5
18B6
  8
0
  6
BYBLOCK
  2
NRE-319
 10
0.0
 20
0.0
 30
0.0
  0
VIEWPORT
  5
91D
 67
     1
  8
0
  6
BYBLOCK
 10
7.8
 20
4.5
 30
0.0
 40
15.64
 41
9.0
 68
     1
 69
     1
1001
ACAD
1000
MVIEW
1002
{
1070
    16
1010
0.0
1020
0.0
1030
0.0
1020
0.0
1030
0.0
1010
0.0
1020
0.0
1030
1.0
1020
0.0
1030
1.0
1040
0.0
1040
12.0
1040
6.0
1040
4.5
1040
50.0
1040
0.0
1040
0.0
1070
     0
1070
   100
1070
     0
1070
     3
1070
     0
1070
     0
1070
     0
1070
     0
1040
0.0
1040
0.0
1040
0.0
1040
0.5
1040
0.5
1040
0.5
1040
0.5
1070
     0
1002
{
1002
}
1002
}
  0
ENDSEC
  0
EOF
