  0
SECTION
  2
HEADER
  9
$ACADVER
  1
AC1009
  9
$DWGCODEPAGE
  3
ansi_1252
  9
$INSBASE
 10
0.0
 20
0.0
 30
0.0
  9
$EXTMIN
 10
0.0
 20
-200.0
 30
0.0
  9
$EXTMAX
 10
2700.0
 20
200.0
 30
0.0
  9
$LIMMIN
 10
0.0
 20
0.0
  9
$LIMMAX
 10
420.0
 20
297.0
  9
$ORTHOMODE
 70
     0
  9
$REGENMODE
 70
     1
  9
$FILLMODE
 70
     1
  9
$QTEXTMODE
 70
     0
  9
$MIRRTEXT
 70
     0
  9
$DRAGMODE
 70
     2
  9
$LTSCALE
 40
1.0
  9
$OSMODE
 70
    37
  9
$ATTMODE
 70
     1
  9
$TEXTSIZE
 40
20.0
  9
$TRACEWID
 40
1.0
  9
$TEXTSTYLE
  7
STANDARD
  9
$CLAYER
  8
0
  9
$CELTYPE
  6
BYLAYER
  9
$CECOLOR
 62
   256
  9
$DIMSCALE
 40
1.0
  9
$DIMASZ
 40
2.5
  9
$DIMEXO
 40
0.625
  9
$DIMDLI
 40
3.75
  9
$DIMRND
 40
0.0
  9
$DIMDLE
 40
0.0
  9
$DIMEXE
 40
1.25
  9
$DIMTP
 40
0.0
  9
$DIMTM
 40
0.0
  9
$DIMTXT
 40
2.5
  9
$DIMCEN
 40
2.5
  9
$DIMTSZ
 40
0.0
  9
$DIMTOL
 70
     0
  9
$DIMLIM
 70
     0
  9
$DIMTIH
 70
     0
  9
$DIMTOH
 70
     0
  9
$DIMSE1
 70
     0
  9
$DIMSE2
 70
     0
  9
$DIMTAD
 70
     1
  9
$DIMZIN
 70
     8
  9
$DIMBLK
  1

  9
$DIMASO
 70
     1
  9
$DIMSHO
 70
     1
  9
$DIMPOST
  1

  9
$DIMAPOST
  1

  9
$DIMALT
 70
     0
  9
$DIMALTD
 70
     3
  9
$DIMALTF
 40
0.03937007874016
  9
$DIMLFAC
 40
1.0
  9
$DIMTOFL
 70
     1
  9
$DIMTVP
 40
0.0
  9
$DIMTIX
 70
     0
  9
$DIMSOXD
 70
     0
  9
$DIMSAH
 70
     0
  9
$DIMBLK1
  1

  9
$DIMBLK2
  1

  9
$DIMSTYLE
  2
ISO-25
  9
$DIMCLRD
 70
     0
  9
$DIMCLRE
 70
     0
  9
$DIMCLRT
 70
     0
  9
$DIMTFAC
 40
1.0
  9
$DIMGAP
 40
0.625
  9
$LUNITS
 70
     2
  9
$LUPREC
 70
     4
  9
$SKETCHINC
 40
1.0
  9
$FILLETRAD
 40
0.0
  9
$AUNITS
 70
     0
  9
$AUPREC
 70
     0
  9
$MENU
  1
.
  9
$ELEVATION
 40
0.0
  9
$PELEVATION
 40
0.0
  9
$THICKNESS
 40
0.0
  9
$LIMCHECK
 70
     0
  9
$CHAMFERA
 40
0.0
  9
$CHAMFERB
 40
0.0
  9
$SKPOLY
 70
     0
  9
$TDCREATE
 40
2453353.758792488
  9
$TDUPDATE
 40
2456372.113457778
  9
$TDINDWG
 40
9791572.06217926
  9
$TDUSRTIMER
 40
9791572.06217926
  9
$USRTIMER
 70
     1
  9
$ANGBASE
 50
0.0
  9
$ANGDIR
 70
     0
  9
$PDMODE
 70
     0
  9
$PDSIZE
 40
0.0
  9
$PLINEWID
 40
9.0
  9
$COORDS
 70
     1
  9
$SPLFRAME
 70
     0
  9
$SPLINETYPE
 70
     6
  9
$SPLINESEGS
 70
     8
  9
$ATTDIA
 70
     0
  9
$ATTREQ
 70
     1
  9
$HANDLING
 70
     1
  9
$HANDSEED
  5
14B
  9
$SURFTAB1
 70
     6
  9
$SURFTAB2
 70
     6
  9
$SURFTYPE
 70
     6
  9
$SURFU
 70
     6
  9
$SURFV
 70
     6
  9
$UCSNAME
  2

  9
$UCSORG
 10
0.0
 20
0.0
 30
0.0
  9
$UCSXDIR
 10
1.0
 20
0.0
 30
0.0
  9
$UCSYDIR
 10
0.0
 20
1.0
 30
0.0
  9
$PUCSNAME
  2

  9
$PUCSORG
 10
0.0
 20
0.0
 30
0.0
  9
$PUCSXDIR
 10
1.0
 20
0.0
 30
0.0
  9
$PUCSYDIR
 10
0.0
 20
1.0
 30
0.0
  9
$USERI1
 70
     0
  9
$USERI2
 70
     0
  9
$USERI3
 70
     0
  9
$USERI4
 70
     0
  9
$USERI5
 70
     0
  9
$USERR1
 40
0.0
  9
$USERR2
 40
0.0
  9
$USERR3
 40
0.0
  9
$USERR4
 40
0.0
  9
$USERR5
 40
0.0
  9
$WORLDVIEW
 70
     1
  9
$SHADEDGE
 70
     3
  9
$SHADEDIF
 70
    70
  9
$TILEMODE
 70
     1
  9
$MAXACTVP
 70
    64
  9
$PLIMCHECK
 70
     0
  9
$PEXTMIN
 10
1.000000000000000E+20
 20
1.000000000000000E+20
 30
1.000000000000000E+20
  9
$PEXTMAX
 10
-1.000000000000000E+20
 20
-1.000000000000000E+20
 30
-1.000000000000000E+20
  9
$PLIMMIN
 10
0.0
 20
0.0
  9
$PLIMMAX
 10
420.0
 20
297.0
  9
$UNITMODE
 70
     0
  9
$VISRETAIN
 70
     1
  9
$PLINEGEN
 70
     0
  9
$PSLTSCALE
 70
     1
  0
ENDSEC
  0
SECTION
  2
TABLES
  0
TABLE
  2
VPORT
 70
     1
  0
VPORT
  2
*ACTIVE
 70
     0
 10
0.0
 20
0.0
 11
1.0
 21
1.0
 12
1361.576005173413
 22
249.6299172175088
 13
0.0
 23
0.0
 14
10.0
 24
10.0
 15
10.0
 25
10.0
 16
0.0
 26
0.0
 36
1.0
 17
0.0
 27
0.0
 37
0.0
 40
1618.743354807417
 41
1.664827586206896
 42
50.0
 43
0.0
 44
0.0
 50
0.0
 51
0.0
 71
    16
 72
  1000
 73
     1
 74
     3
 75
     0
 76
     0
 77
     0
 78
     0
  0
ENDTAB
  0
TABLE
  2
LTYPE
 70
     1
  0
LTYPE
  2
CONTINUOUS
 70
     0
  3
Solid line
 72
    65
 73
     0
 40
0.0
  0
ENDTAB
  0
TABLE
  2
LAYER
 70
     1
  0
LAYER
  2
0
 70
     0
 62
     7
  6
CONTINUOUS
  0
ENDTAB
  0
TABLE
  2
STYLE
 70
     1
  0
STYLE
  2
STANDARD
 70
     0
 40
0.0
 41
1.0
 50
0.0
 71
     0
 42
2.5
  3
txt
  4

  0
ENDTAB
  0
TABLE
  2
VIEW
 70
     0
  0
ENDTAB
  0
TABLE
  2
UCS
 70
     0
  0
ENDTAB
  0
TABLE
  2
APPID
 70
     1
  0
APPID
  2
ACAD
 70
     0
  0
ENDTAB
  0
TABLE
  2
DIMSTYLE
 70
     2
  0
DIMSTYLE
  2
STANDARD
 70
     0
  3

  4

  5

  6

  7

 40
1.0
 41
0.18
 42
0.0625
 43
0.38
 44
0.18
 45
0.0
 46
0.0
 47
0.0
 48
0.0
140
0.18
141
0.09
142
0.0
143
25.4
144
1.0
145
0.0
146
1.0
147
0.09
 71
     0
 72
     0
 73
     1
 74
     1
 75
     0
 76
     0
 77
     0
 78
     0
170
     0
171
     2
172
     0
173
     0
174
     0
175
     0
176
     0
177
     0
178
     0
  0
DIMSTYLE
  2
ISO-25
 70
     0
  3

  4

  5

  6

  7

 40
1.0
 41
2.5
 42
0.625
 43
3.75
 44
1.25
 45
0.0
 46
0.0
 47
0.0
 48
0.0
140
2.5
141
2.5
142
0.0
143
0.03937007874016
144
1.0
145
0.0
146
1.0
147
0.625
 71
     0
 72
     0
 73
     0
 74
     0
 75
     0
 76
     0
 77
     1
 78
     8
170
     0
171
     3
172
     1
173
     0
174
     0
175
     0
176
     0
177
     0
178
     0
  0
ENDTAB
  0
ENDSEC
  0
SECTION
  2
BLOCKS
  0
BLOCK
  8
0
  2
$MODEL_SPACE
 70
     0
 10
0.0
 20
0.0
 30
0.0
  3
$MODEL_SPACE
  1

  0
ENDBLK
  5
21
  8
0
  0
BLOCK
 67
     1
  8
0
  2
$PAPER_SPACE
 70
     0
 10
0.0
 20
0.0
 30
0.0
  3
$PAPER_SPACE
  1

  0
ENDBLK
  5
76
 67
     1
  8
0
  0
BLOCK
  8
0
  2
NRE-410
 70
     0
 10
0.0
 20
0.0
 30
0.0
  3
NRE-410
  1

  0
POLYLINE
  5
CE
  8
0
 66
     1
 10
0.0
 20
0.0
 30
0.0
 70
     1
  0
VERTEX
  5
FE
  8
0
 10
0.0
 20
-200.0
 30
0.0
  0
VERTEX
  5
FF
  8
0
 10
2700.0
 20
-200.0
 30
0.0
  0
VERTEX
  5
100
  8
0
 10
2700.0
 20
200.0
 30
0.0
  0
VERTEX
  5
101
  8
0
 10
0.0
 20
200.0
 30
0.0
  0
SEQEND
  5
FD
  8
0
  0
POLYLINE
  5
CF
  8
0
 66
     1
 10
0.0
 20
0.0
 30
0.0
 40
9.0
 41
9.0
  0
VERTEX
  5
103
  8
0
 10
751.5709957132314
 20
112.860808818102
 30
0.0
  0
VERTEX
  5
104
  8
0
 10
879.4073325556254
 20
125.0
 30
0.0
  0
VERTEX
  5
105
  8
0
 10
1620.415769967993
 20
125.0
 30
0.0
  0
SEQEND
  5
102
  8
0
  0
POLYLINE
  5
D0
  8
0
 66
     1
 10
0.0
 20
0.0
 30
0.0
 40
9.0
 41
9.0
  0
VERTEX
  5
107
  8
0
 10
21.31402905293463
 20
25.0
 30
0.0
  0
VERTEX
  5
108
  8
0
 10
2669.627438447262
 20
25.0
 30
0.0
  0
SEQEND
  5
106
  8
0
  0
POLYLINE
  5
D1
  8
0
 66
     1
 10
0.0
 20
0.0
 30
0.0
 40
9.0
 41
9.0
  0
VERTEX
  5
10A
  8
0
 10
253.2875880062215
 20
25.0
 30
0.0
  0
VERTEX
  5
10B
  8
0
 10
751.5709957132314
 20
112.860808818102
 30
0.0
  0
SEQEND
  5
109
  8
0
  0
POLYLINE
  5
D2
  8
0
 66
     1
 10
0.0
 20
0.0
 30
0.0
 40
9.0
 41
9.0
  0
VERTEX
  5
10D
  8
0
 10
536.8516789871071
 20
75.0
 30
0.0
  0
VERTEX
  5
10E
  8
0
 10
1336.851678987107
 20
75.0
 30
0.0
  0
SEQEND
  5
10C
  8
0
  0
POLYLINE
  5
D3
  8
0
 66
     1
 10
0.0
 20
0.0
 30
0.0
 40
9.0
 41
9.0
  0
VERTEX
  5
110
  8
0
 10
1336.851678987107
 20
75.0
 30
0.0
  0
VERTEX
  5
111
  8
0
 10
1620.415769967993
 20
125.0
 30
0.0
  0
SEQEND
  5
10F
  8
0
  0
POLYLINE
  5
D4
  8
0
 66
     1
 10
0.0
 20
0.0
 30
0.0
 40
9.0
 41
9.0
  0
VERTEX
  5
113
  8
0
 10
1620.415769967993
 20
125.0
 30
0.0
  0
VERTEX
  5
114
  8
0
 10
1827.254372022249
 20
161.4712261941867
 30
0.0
  0
VERTEX
  5
115
  8
0
 10
1951.651982570601
 20
170.0
 30
0.0
  0
VERTEX
  5
116
  8
0
 10
2553.905339970688
 20
170.0
 30
0.0
  0
SEQEND
  5
112
  8
0
  0
POLYLINE
  5
D5
  8
0
 66
     1
 10
0.0
 20
0.0
 30
0.0
 40
9.0
 41
9.0
  0
VERTEX
  5
118
  8
0
 10
1336.851678987107
 20
75.0
 30
0.0
  0
VERTEX
  5
119
  8
0
 10
1447.466004118743
 20
75.0
 30
0.0
  0
VERTEX
  5
11A
  8
0
 10
1533.176210547498
 20
64.55804544365446
 30
0.0
  0
VERTEX
  5
11B
  8
0
 10
1766.801686127255
 20
25.0
 30
0.0
  0
SEQEND
  5
117
  8
0
  0
POLYLINE
  5
D6
  8
0
 66
     1
 10
0.0
 20
0.0
 30
0.0
 40
9.0
 41
9.0
  0
VERTEX
  5
11D
  8
0
 10
925.9722692471755
 20
-25.0
 30
0.0
  0
VERTEX
  5
11E
  8
0
 10
1725.972269247175
 20
-25.0
 30
0.0
  0
SEQEND
  5
11C
  8
0
  0
POLYLINE
  5
D7
  8
0
 66
     1
 10
0.0
 20
0.0
 30
0.0
 40
9.0
 41
9.0
  0
VERTEX
  5
120
  8
0
 10
654.0878451924675
 20
25.0
 30
0.0
  0
VERTEX
  5
121
  8
0
 10
925.9722692471755
 20
-25.0
 30
0.0
  0
SEQEND
  5
11F
  8
0
  0
POLYLINE
  5
D8
  8
0
 66
     1
 10
0.0
 20
0.0
 30
0.0
 40
9.0
 41
9.0
  0
VERTEX
  5
123
  8
0
 10
206.2250350934046
 20
-0.0000227016112717
 30
0.0
  0
VERTEX
  5
124
  8
0
 10
0.0
 20
0.0
 30
0.0
  0
SEQEND
  5
122
  8
0
  0
POLYLINE
  5
D9
  8
0
 66
     1
 10
0.0
 20
0.0
 30
0.0
 40
9.0
 41
9.0
  0
VERTEX
  5
126
  8
0
 10
111.5054729024004
 20
-0.000012274716795
 30
0.0
  0
VERTEX
  5
127
  8
0
 10
253.2875880062215
 20
25.0
 30
0.0
  0
SEQEND
  5
125
  8
0
  0
POLYLINE
  5
DA
  8
0
 66
     1
 10
0.0
 20
0.0
 30
0.0
 40
9.0
 41
9.0
  0
VERTEX
  5
129
  8
0
 10
206.3845064374715
 20
-0.0000454032224297
 30
0.0
 42
-0.0694976695955459
  0
VERTEX
  5
12A
  8
0
 10
419.3349982997262
 20
-33.38684599960601
 30
0.0
 42
-0.013060048426108
  0
VERTEX
  5
12B
  8
0
 10
553.1922532186139
 20
-75.00002270161116
 30
0.0
 42
0.0080186525210324
  0
VERTEX
  5
12C
  8
0
 10
667.7460919208575
 20
-111.1358985062527
 30
0.0
 42
0.0676710999372918
  0
VERTEX
  5
12D
  8
0
 10
900.0000000000003
 20
-149.9999999999999
 30
0.0
 42
10.93955644610815
  0
SEQEND
  5
128
  8
0
  0
POLYLINE
  5
DB
  8
0
 66
     1
 10
0.0
 20
0.0
 30
0.0
 40
9.0
 41
9.0
  0
VERTEX
  5
12F
  8
0
 10
2493.615493562529
 20
-0.0000454032224297
 30
0.0
 42
0.0694976695955459
  0
VERTEX
  5
130
  8
0
 10
2280.665001700274
 20
-33.38684599960601
 30
0.0
 42
0.013060048426108
  0
VERTEX
  5
131
  8
0
 10
2146.807746781386
 20
-75.00002270161116
 30
0.0
 42
-0.0080186525210324
  0
VERTEX
  5
132
  8
0
 10
2032.253908079143
 20
-111.1358985062527
 30
0.0
 42
-0.0676710999372918
  0
VERTEX
  5
133
  8
0
 10
1800.0
 20
-149.9999999999999
 30
0.0
 42
-10.93955644610815
  0
SEQEND
  5
12E
  8
0
  0
POLYLINE
  5
DC
  8
0
 66
     1
 10
0.0
 20
0.0
 30
0.0
 40
9.0
 41
9.0
  0
VERTEX
  5
135
  8
0
 10
900.0
 20
-150.0
 30
0.0
  0
VERTEX
  5
136
  8
0
 10
1799.999999999999
 20
-149.9999999999998
 30
0.0
  0
SEQEND
  5
134
  8
0
  0
POLYLINE
  5
DD
  8
0
 66
     1
 10
0.0
 20
0.0
 30
0.0
 40
9.0
 41
9.0
  0
VERTEX
  5
138
  8
0
 10
2493.615493562529
 20
-0.0000454032224866
 30
0.0
  0
VERTEX
  5
139
  8
0
 10
2700.0
 20
0.0
 30
0.0
  0
SEQEND
  5
137
  8
0
  0
LINE
  5
DE
  8
0
 10
2548.593951312687
 20
13.11870454576965
 30
0.0
 11
1861.865096387798
 21
13.11870454576965
 31
0.0
  0
LINE
  5
DF
  8
0
 10
2548.593951312687
 20
182.0537776314545
 30
0.0
 11
1861.865096387798
 21
182.0537776314545
 31
0.0
  0
POLYLINE
  5
E0
  8
0
 66
     1
 10
0.0
 20
0.0
 30
0.0
 70
     1
  0
VERTEX
  5
13B
  8
0
 10
2127.049231243722
 20
7.879457142297326
 30
0.0
  0
VERTEX
  5
13C
  8
0
 10
2166.534444589436
 20
7.879457142297326
 30
0.0
  0
VERTEX
  5
13D
  8
0
 10
2166.534444589436
 20
189.028541629393
 30
0.0
  0
VERTEX
  5
13E
  8
0
 10
2127.049231243722
 20
189.028541629393
 30
0.0
  0
SEQEND
  5
13A
  8
0
  0
TEXT
  5
E1
  8
0
 10
779.2050469640743
 20
-97.38771567838587
 30
0.0
 40
30.0
  1
Terminal Okerland
  0
POLYLINE
  5
E2
  8
0
 66
     1
 10
0.0
 20
0.0
 30
0.0
 40
9.0
 41
9.0
  0
VERTEX
  5
140
  8
0
 10
21.31402905293463
 20
35.27602689705972
 30
0.0
  0
VERTEX
  5
141
  8
0
 10
21.31402905293463
 20
14.72397310294028
 30
0.0
  0
SEQEND
  5
13F
  8
0
  0
POLYLINE
  5
E3
  8
0
 66
     1
 10
0.0
 20
0.0
 30
0.0
 40
9.0
 41
9.0
  0
VERTEX
  5
143
  8
0
 10
1725.972269247175
 20
-14.72397310294028
 30
0.0
  0
VERTEX
  5
144
  8
0
 10
1725.972269247175
 20
-35.27602689705972
 30
0.0
  0
SEQEND
  5
142
  8
0
  0
POLYLINE
  5
E4
  8
0
 66
     1
 10
0.0
 20
0.0
 30
0.0
 40
9.0
 41
9.0
  0
VERTEX
  5
146
  8
0
 10
2669.627438447262
 20
35.27602689705972
 30
0.0
  0
VERTEX
  5
147
  8
0
 10
2669.627438447262
 20
14.72397310294028
 30
0.0
  0
SEQEND
  5
145
  8
0
  0
POLYLINE
  5
E5
  8
0
 66
     1
 10
0.0
 20
0.0
 30
0.0
 40
9.0
 41
9.0
  0
VERTEX
  5
149
  8
0
 10
2553.905339970688
 20
180.2760268970598
 30
0.0
  0
VERTEX
  5
14A
  8
0
 10
2553.905339970688
 20
159.7239731029403
 30
0.0
  0
SEQEND
  5
148
  8
0
  0
TEXT
  5
E6
  8
0
 10
914.9008081875854
 20
146.3054504660665
 30
0.0
 40
40.0
  1
2700
  0
TEXT
  5
E7
  8
0
 10
170.5663642296562
 20
137.9630446623439
 30
0.0
 40
40.0
  1
NRE-410
  0
TEXT
  5
E8
  8
0
 10
153.1257946051489
 20
71.10752776839939
 30
0.0
 40
40.0
  1
JHun
  0
TEXT
  5
E9
  8
0
 62
     2
 10
27.65460676086957
 20
-186.216098004126
 30
0.0
 40
20.0
  1
DL 03/13
  0
ENDBLK
  5
F3
  8
0
  0
ENDSEC
  0
SECTION
  2
ENTITIES
  0
INSERT
  5
EC
  8
0
  2
NRE-410
 10
0.0
 20
0.0
 30
0.0
  0
ENDSEC
  0
EOF
