  0
SECTION
  2
HEADER
  9
$ACADVER
  1
AC1009
  9
$DWGCODEPAGE
  3
ansi_1252
  9
$INSBASE
 10
0.0
 20
0.0
 30
0.0
  9
$EXTMIN
 10
-544.3149618570184
 20
-420.0
 30
0.0
  9
$EXTMAX
 10
2652.861604473563
 20
277.5347341662057
 30
0.0
  9
$LIMMIN
 10
0.0
 20
0.0
  9
$LIMMAX
 10
420.0
 20
297.0
  9
$ORTHOMODE
 70
     0
  9
$REGENMODE
 70
     1
  9
$FILLMODE
 70
     1
  9
$QTEXTMODE
 70
     0
  9
$MIRRTEXT
 70
     0
  9
$DRAGMODE
 70
     2
  9
$LTSCALE
 40
1.0
  9
$OSMODE
 70
    37
  9
$ATTMODE
 70
     1
  9
$TEXTSIZE
 40
30.0
  9
$TRACEWID
 40
1.0
  9
$TEXTSTYLE
  7
STANDARD
  9
$CLAYER
  8
0
  9
$CELTYPE
  6
BYLAYER
  9
$CECOLOR
 62
   256
  9
$DIMSCALE
 40
1.0
  9
$DIMASZ
 40
2.5
  9
$DIMEXO
 40
0.625
  9
$DIMDLI
 40
3.75
  9
$DIMRND
 40
0.0
  9
$DIMDLE
 40
0.0
  9
$DIMEXE
 40
1.25
  9
$DIMTP
 40
0.0
  9
$DIMTM
 40
0.0
  9
$DIMTXT
 40
2.5
  9
$DIMCEN
 40
2.5
  9
$DIMTSZ
 40
0.0
  9
$DIMTOL
 70
     0
  9
$DIMLIM
 70
     0
  9
$DIMTIH
 70
     0
  9
$DIMTOH
 70
     0
  9
$DIMSE1
 70
     0
  9
$DIMSE2
 70
     0
  9
$DIMTAD
 70
     1
  9
$DIMZIN
 70
     8
  9
$DIMBLK
  1

  9
$DIMASO
 70
     1
  9
$DIMSHO
 70
     1
  9
$DIMPOST
  1

  9
$DIMAPOST
  1

  9
$DIMALT
 70
     0
  9
$DIMALTD
 70
     3
  9
$DIMALTF
 40
0.03937007874016
  9
$DIMLFAC
 40
1.0
  9
$DIMTOFL
 70
     1
  9
$DIMTVP
 40
0.0
  9
$DIMTIX
 70
     0
  9
$DIMSOXD
 70
     0
  9
$DIMSAH
 70
     0
  9
$DIMBLK1
  1

  9
$DIMBLK2
  1

  9
$DIMSTYLE
  2
ISO-25
  9
$DIMCLRD
 70
     0
  9
$DIMCLRE
 70
     0
  9
$DIMCLRT
 70
     0
  9
$DIMTFAC
 40
1.0
  9
$DIMGAP
 40
0.625
  9
$LUNITS
 70
     2
  9
$LUPREC
 70
     4
  9
$SKETCHINC
 40
1.0
  9
$FILLETRAD
 40
0.0
  9
$AUNITS
 70
     0
  9
$AUPREC
 70
     0
  9
$MENU
  1
.
  9
$ELEVATION
 40
0.0
  9
$PELEVATION
 40
0.0
  9
$THICKNESS
 40
0.0
  9
$LIMCHECK
 70
     0
  9
$CHAMFERA
 40
0.0
  9
$CHAMFERB
 40
0.0
  9
$SKPOLY
 70
     0
  9
$TDCREATE
 40
2453353.800459155
  9
$TDUPDATE
 40
2456748.139634074
  9
$TDINDWG
 40
2440852.080755556
  9
$TDUSRTIMER
 40
2440852.080755556
  9
$USRTIMER
 70
     1
  9
$ANGBASE
 50
0.0
  9
$ANGDIR
 70
     0
  9
$PDMODE
 70
     0
  9
$PDSIZE
 40
0.0
  9
$PLINEWID
 40
9.0
  9
$COORDS
 70
     1
  9
$SPLFRAME
 70
     0
  9
$SPLINETYPE
 70
     6
  9
$SPLINESEGS
 70
     8
  9
$ATTDIA
 70
     0
  9
$ATTREQ
 70
     1
  9
$HANDLING
 70
     1
  9
$HANDSEED
  5
372
  9
$SURFTAB1
 70
     6
  9
$SURFTAB2
 70
     6
  9
$SURFTYPE
 70
     6
  9
$SURFU
 70
     6
  9
$SURFV
 70
     6
  9
$UCSNAME
  2

  9
$UCSORG
 10
0.0
 20
0.0
 30
0.0
  9
$UCSXDIR
 10
1.0
 20
0.0
 30
0.0
  9
$UCSYDIR
 10
0.0
 20
1.0
 30
0.0
  9
$PUCSNAME
  2

  9
$PUCSORG
 10
0.0
 20
0.0
 30
0.0
  9
$PUCSXDIR
 10
1.0
 20
0.0
 30
0.0
  9
$PUCSYDIR
 10
0.0
 20
1.0
 30
0.0
  9
$USERI1
 70
     0
  9
$USERI2
 70
     0
  9
$USERI3
 70
     0
  9
$USERI4
 70
     0
  9
$USERI5
 70
     0
  9
$USERR1
 40
0.0
  9
$USERR2
 40
0.0
  9
$USERR3
 40
0.0
  9
$USERR4
 40
0.0
  9
$USERR5
 40
0.0
  9
$WORLDVIEW
 70
     1
  9
$SHADEDGE
 70
     3
  9
$SHADEDIF
 70
    70
  9
$TILEMODE
 70
     1
  9
$MAXACTVP
 70
    64
  9
$PLIMCHECK
 70
     0
  9
$PEXTMIN
 10
1.000000000000000E+20
 20
1.000000000000000E+20
 30
1.000000000000000E+20
  9
$PEXTMAX
 10
-1.000000000000000E+20
 20
-1.000000000000000E+20
 30
-1.000000000000000E+20
  9
$PLIMMIN
 10
0.0
 20
0.0
  9
$PLIMMAX
 10
420.0
 20
297.0
  9
$UNITMODE
 70
     0
  9
$VISRETAIN
 70
     1
  9
$PLINEGEN
 70
     0
  9
$PSLTSCALE
 70
     1
  0
ENDSEC
  0
SECTION
  2
TABLES
  0
TABLE
  2
VPORT
 70
     1
  0
VPORT
  2
*ACTIVE
 70
     0
 10
0.0
 20
0.0
 11
1.0
 21
1.0
 12
614.2372032837806
 22
-278.9741549987228
 13
0.0
 23
0.0
 14
10.0
 24
10.0
 15
10.0
 25
10.0
 16
0.0
 26
0.0
 36
1.0
 17
0.0
 27
0.0
 37
0.0
 40
2574.360254991219
 41
1.664827586206896
 42
50.0
 43
0.0
 44
0.0
 50
0.0
 51
0.0
 71
    16
 72
  1000
 73
     1
 74
     3
 75
     0
 76
     0
 77
     0
 78
     0
  0
ENDTAB
  0
TABLE
  2
LTYPE
 70
     1
  0
LTYPE
  2
CONTINUOUS
 70
     0
  3
Solid line
 72
    65
 73
     0
 40
0.0
  0
ENDTAB
  0
TABLE
  2
LAYER
 70
     1
  0
LAYER
  2
0
 70
     0
 62
     7
  6
CONTINUOUS
  0
ENDTAB
  0
TABLE
  2
STYLE
 70
     1
  0
STYLE
  2
STANDARD
 70
     0
 40
0.0
 41
1.0
 50
0.0
 71
     0
 42
2.5
  3
txt
  4

  0
ENDTAB
  0
TABLE
  2
VIEW
 70
     0
  0
ENDTAB
  0
TABLE
  2
UCS
 70
     0
  0
ENDTAB
  0
TABLE
  2
APPID
 70
     1
  0
APPID
  2
ACAD
 70
     0
  0
ENDTAB
  0
TABLE
  2
DIMSTYLE
 70
     2
  0
DIMSTYLE
  2
STANDARD
 70
     0
  3

  4

  5

  6

  7

 40
1.0
 41
0.18
 42
0.0625
 43
0.38
 44
0.18
 45
0.0
 46
0.0
 47
0.0
 48
0.0
140
0.18
141
0.09
142
0.0
143
25.4
144
1.0
145
0.0
146
1.0
147
0.09
 71
     0
 72
     0
 73
     1
 74
     1
 75
     0
 76
     0
 77
     0
 78
     0
170
     0
171
     2
172
     0
173
     0
174
     0
175
     0
176
     0
177
     0
178
     0
  0
DIMSTYLE
  2
ISO-25
 70
     0
  3

  4

  5

  6

  7

 40
1.0
 41
2.5
 42
0.625
 43
3.75
 44
1.25
 45
0.0
 46
0.0
 47
0.0
 48
0.0
140
2.5
141
2.5
142
0.0
143
0.03937007874016
144
1.0
145
0.0
146
1.0
147
0.625
 71
     0
 72
     0
 73
     0
 74
     0
 75
     0
 76
     0
 77
     1
 78
     8
170
     0
171
     3
172
     1
173
     0
174
     0
175
     0
176
     0
177
     0
178
     0
  0
ENDTAB
  0
ENDSEC
  0
SECTION
  2
BLOCKS
  0
BLOCK
  8
0
  2
$MODEL_SPACE
 70
     0
 10
0.0
 20
0.0
 30
0.0
  3
$MODEL_SPACE
  1

  0
ENDBLK
  5
21
  8
0
  0
BLOCK
 67
     1
  8
0
  2
$PAPER_SPACE
 70
     0
 10
0.0
 20
0.0
 30
0.0
  3
$PAPER_SPACE
  1

  0
ENDBLK
  5
76
 67
     1
  8
0
  0
BLOCK
  8
0
  2
NRE-501
 70
     0
 10
0.0
 20
0.0
 30
0.0
  3
NRE-501
  1

  0
POLYLINE
  5
239
  8
0
 66
     1
 10
0.0
 20
0.0
 30
0.0
 70
     1
  0
VERTEX
  5
293
  8
0
 10
-0.0000000000011369
 20
-420.0
 30
0.0
  0
VERTEX
  5
294
  8
0
 10
1799.999999999999
 20
-420.0
 30
0.0
  0
VERTEX
  5
295
  8
0
 10
1799.999999999999
 20
80.0
 30
0.0
  0
VERTEX
  5
296
  8
0
 10
-0.0000000000011369
 20
80.0
 30
0.0
  0
SEQEND
  5
292
  8
0
  0
POLYLINE
  5
23A
  8
0
 66
     1
 10
0.0
 20
0.0
 30
0.0
 40
9.0
 41
9.0
  0
VERTEX
  5
298
  8
0
 10
0.0
 20
0.0
 30
0.0
  0
VERTEX
  5
299
  8
0
 10
1799.999999999999
 20
0.0
 30
0.0
  0
SEQEND
  5
297
  8
0
  0
POLYLINE
  5
23B
  8
0
 66
     1
 10
0.0
 20
0.0
 30
0.0
 40
9.0
 41
9.0
  0
VERTEX
  5
29B
  8
0
 10
149.9999999999989
 20
0.0
 30
0.0
  0
VERTEX
  5
29C
  8
0
 10
446.3065021785401
 20
-46.93033951206928
 30
0.0
  0
SEQEND
  5
29A
  8
0
  0
POLYLINE
  5
23C
  8
0
 66
     1
 10
0.0
 20
0.0
 30
0.0
 40
9.0
 41
9.0
  0
VERTEX
  5
29E
  8
0
 10
1767.941104524903
 20
-25.0
 30
0.0
  0
VERTEX
  5
29F
  8
0
 10
1492.156212133123
 20
-25.0
 30
0.0
  0
SEQEND
  5
29D
  8
0
  0
LINE
  5
23D
  8
0
 10
-0.0000000000011369
 20
-340.0
 30
0.0
 11
1799.999999999999
 21
-340.0
 31
0.0
  0
POLYLINE
  5
23E
  8
0
 66
     1
 10
0.0
 20
0.0
 30
0.0
 40
9.0
 41
9.0
  0
VERTEX
  5
2A1
  8
0
 10
821.0781060665609
 20
-300.0
 30
0.0
  0
VERTEX
  5
2A2
  8
0
 10
978.9218939334369
 20
-275.0
 30
0.0
  0
SEQEND
  5
2A0
  8
0
  0
POLYLINE
  5
23F
  8
0
 66
     1
 10
0.0
 20
0.0
 30
0.0
 40
9.0
 41
9.0
  0
VERTEX
  5
2A4
  8
0
 10
899.9999999999989
 20
-300.0
 30
0.0
  0
VERTEX
  5
2A5
  8
0
 10
-0.0000000000011369
 20
-300.0
 30
0.0
  0
SEQEND
  5
2A3
  8
0
  0
POLYLINE
  5
240
  8
0
 66
     1
 10
0.0
 20
0.0
 30
0.0
 40
9.0
 41
9.0
  0
VERTEX
  5
2A7
  8
0
 10
-0.0000000000011369
 20
-275.0
 30
0.0
  0
VERTEX
  5
2A8
  8
0
 10
899.9999999999989
 20
-275.0
 30
0.0
  0
SEQEND
  5
2A6
  8
0
  0
POLYLINE
  5
241
  8
0
 66
     1
 10
0.0
 20
0.0
 30
0.0
 40
9.0
 41
9.0
  0
VERTEX
  5
2AA
  8
0
 10
978.9218939334369
 20
-259.3565534959769
 30
0.0
  0
VERTEX
  5
2AB
  8
0
 10
1077.690727992951
 20
-274.9999999999999
 30
0.0
  0
VERTEX
  5
2AC
  8
0
 10
978.9218939334369
 20
-259.3565534959769
 30
0.0
  0
VERTEX
  5
2AD
  8
0
 10
1028.306310963194
 20
-267.1782767479884
 30
0.0
  0
SEQEND
  5
2A9
  8
0
  0
POLYLINE
  5
242
  8
0
 66
     1
 10
0.0
 20
0.0
 30
0.0
 40
9.0
 41
9.0
  0
VERTEX
  5
2AF
  8
0
 10
978.9218939334369
 20
-275.0
 30
0.0
  0
VERTEX
  5
2B0
  8
0
 10
1077.690727992951
 20
-259.3565534959769
 30
0.0
  0
VERTEX
  5
2B1
  8
0
 10
978.9218939334369
 20
-275.0
 30
0.0
  0
VERTEX
  5
2B2
  8
0
 10
1028.306310963194
 20
-267.1782767479884
 30
0.0
  0
SEQEND
  5
2AE
  8
0
  0
POLYLINE
  5
243
  8
0
 66
     1
 10
0.0
 20
0.0
 30
0.0
 40
9.0
 41
9.0
  0
VERTEX
  5
2B4
  8
0
 10
899.9999999999989
 20
-275.0
 30
0.0
  0
VERTEX
  5
2B5
  8
0
 10
978.9218939334369
 20
-275.0
 30
0.0
  0
SEQEND
  5
2B3
  8
0
  0
POLYLINE
  5
244
  8
0
 66
     1
 10
0.0
 20
0.0
 30
0.0
 40
9.0
 41
9.0
  0
VERTEX
  5
2B7
  8
0
 10
1365.511050878326
 20
-295.0
 30
0.0
  0
VERTEX
  5
2B8
  8
0
 10
1799.999999999999
 20
-295.0
 30
0.0
  0
SEQEND
  5
2B6
  8
0
  0
POLYLINE
  5
245
  8
0
 66
     1
 10
0.0
 20
0.0
 30
0.0
 40
9.0
 41
9.0
  0
VERTEX
  5
2BA
  8
0
 10
1799.999999999999
 20
-320.0
 30
0.0
  0
VERTEX
  5
2BB
  8
0
 10
1265.292721398361
 20
-320.0
 30
0.0
  0
SEQEND
  5
2B9
  8
0
  0
POLYLINE
  5
246
  8
0
 66
     1
 10
0.0
 20
0.0
 30
0.0
  0
VERTEX
  5
2BC
  8
0
 10
1077.690727992951
 20
-274.9999999999999
 30
0.0
  0
VERTEX
  5
2BD
  8
0
 10
1089.572718364396
 20
-276.8283904234935
 30
0.0
  0
VERTEX
  5
2BE
  8
0
 10
1101.471207196359
 20
-278.5539145913623
 30
0.0
  0
VERTEX
  5
2BF
  8
0
 10
1113.385255249149
 20
-280.1788006243516
 30
0.0
  0
VERTEX
  5
2C0
  8
0
 10
1125.313923283076
 20
-281.7052766432067
 30
0.0
  0
VERTEX
  5
2C1
  8
0
 10
1137.256272058452
 20
-283.1355707686732
 30
0.0
  0
VERTEX
  5
2C2
  8
0
 10
1149.211362335585
 20
-284.4719111214963
 30
0.0
  0
VERTEX
  5
2C3
  8
0
 10
1161.178254874787
 20
-285.7165258224213
 30
0.0
  0
VERTEX
  5
2C4
  8
0
 10
1173.156010436368
 20
-286.8716429921936
 30
0.0
  0
VERTEX
  5
2C5
  8
0
 10
1185.143689780638
 20
-287.9394907515586
 30
0.0
  0
VERTEX
  5
2C6
  8
0
 10
1197.140353667906
 20
-288.9222972212617
 30
0.0
  0
VERTEX
  5
2C7
  8
0
 10
1209.145062858484
 20
-289.8222905220481
 30
0.0
  0
VERTEX
  5
2C8
  8
0
 10
1221.156878112682
 20
-290.6416987746633
 30
0.0
  0
VERTEX
  5
2C9
  8
0
 10
1233.17486019081
 20
-291.3827500998527
 30
0.0
  0
VERTEX
  5
2CA
  8
0
 10
1245.198069853178
 20
-292.0476726183615
 30
0.0
  0
VERTEX
  5
2CB
  8
0
 10
1257.225567860096
 20
-292.6386944509352
 30
0.0
  0
VERTEX
  5
2CC
  8
0
 10
1269.256414971875
 20
-293.1580437183191
 30
0.0
  0
VERTEX
  5
2CD
  8
0
 10
1281.289671948826
 20
-293.6079485412584
 30
0.0
  0
VERTEX
  5
2CE
  8
0
 10
1293.324399551257
 20
-293.9906370404987
 30
0.0
  0
VERTEX
  5
2CF
  8
0
 10
1305.35965853948
 20
-294.3083373367854
 30
0.0
  0
VERTEX
  5
2D0
  8
0
 10
1317.394509673805
 20
-294.5632775508636
 30
0.0
  0
VERTEX
  5
2D1
  8
0
 10
1329.428013714541
 20
-294.7576858034788
 30
0.0
  0
VERTEX
  5
2D2
  8
0
 10
1341.459231422001
 20
-294.8937902153764
 30
0.0
  0
VERTEX
  5
2D3
  8
0
 10
1353.487223556492
 20
-294.9738189073017
 30
0.0
  0
VERTEX
  5
2D4
  8
0
 10
1365.511050778326
 20
-295.0
 30
0.0
  0
SEQEND
  5
2D5
  8
0
  0
POLYLINE
  5
247
  8
0
 66
     1
 10
0.0
 20
0.0
 30
0.0
  0
VERTEX
  5
2D6
  8
0
 10
899.9999999999989
 20
-300.0
 30
0.0
  0
VERTEX
  5
2D7
  8
0
 10
915.2405554338536
 20
-300.1012731481482
 30
0.0
  0
VERTEX
  5
2D8
  8
0
 10
930.4758868566847
 20
-300.3935185185185
 30
0.0
  0
VERTEX
  5
2D9
  8
0
 10
945.7064691785859
 20
-300.859375
 30
0.0
  0
VERTEX
  5
2DA
  8
0
 10
960.9327773096493
 20
-301.4814814814815
 30
0.0
  0
VERTEX
  5
2DB
  8
0
 10
976.1552861599688
 20
-302.2424768518519
 30
0.0
  0
VERTEX
  5
2DC
  8
0
 10
991.3744706396371
 20
-303.125
 30
0.0
  0
VERTEX
  5
2DD
  8
0
 10
1006.590805658747
 20
-304.1116898148148
 30
0.0
  0
VERTEX
  5
2DE
  8
0
 10
1021.804766127392
 20
-305.1851851851852
 30
0.0
  0
VERTEX
  5
2DF
  8
0
 10
1037.016826955665
 20
-306.328125
 30
0.0
  0
VERTEX
  5
2E0
  8
0
 10
1052.227463053658
 20
-307.5231481481482
 30
0.0
  0
VERTEX
  5
2E1
  8
0
 10
1067.437149331466
 20
-308.7528935185185
 30
0.0
  0
VERTEX
  5
2E2
  8
0
 10
1082.64636069918
 20
-310.0
 30
0.0
  0
VERTEX
  5
2E3
  8
0
 10
1097.855572066894
 20
-311.2471064814815
 30
0.0
  0
VERTEX
  5
2E4
  8
0
 10
1113.065258344702
 20
-312.4768518518519
 30
0.0
  0
VERTEX
  5
2E5
  8
0
 10
1128.275894442696
 20
-313.671875
 30
0.0
  0
VERTEX
  5
2E6
  8
0
 10
1143.487955270968
 20
-314.8148148148148
 30
0.0
  0
VERTEX
  5
2E7
  8
0
 10
1158.701915739613
 20
-315.8883101851852
 30
0.0
  0
VERTEX
  5
2E8
  8
0
 10
1173.918250758723
 20
-316.875
 30
0.0
  0
VERTEX
  5
2E9
  8
0
 10
1189.137435238391
 20
-317.7575231481482
 30
0.0
  0
VERTEX
  5
2EA
  8
0
 10
1204.359944088711
 20
-318.5185185185185
 30
0.0
  0
VERTEX
  5
2EB
  8
0
 10
1219.586252219775
 20
-319.140625
 30
0.0
  0
VERTEX
  5
2EC
  8
0
 10
1234.816834541676
 20
-319.6064814814815
 30
0.0
  0
VERTEX
  5
2ED
  8
0
 10
1250.052165964507
 20
-319.8987268518519
 30
0.0
  0
VERTEX
  5
2EE
  8
0
 10
1265.292721298361
 20
-320.0
 30
0.0
  0
SEQEND
  5
2EF
  8
0
  0
POLYLINE
  5
248
  8
0
 66
     1
 10
0.0
 20
0.0
 30
0.0
 40
9.0
 41
9.0
  0
VERTEX
  5
2F1
  8
0
 10
899.9999999999989
 20
-300.0
 30
0.0
 42
-0.0208417767109636
  0
VERTEX
  5
2F2
  8
0
 10
1082.64636069918
 20
-310.0
 30
0.0
 42
0.0206589447258467
  0
VERTEX
  5
2F3
  8
0
 10
1265.292721398361
 20
-320.0
 30
0.0
 42
48.40518299799228
  0
SEQEND
  5
2F0
  8
0
  0
POLYLINE
  5
249
  8
0
 66
     1
 10
0.0
 20
0.0
 30
0.0
 40
9.0
 41
9.0
  0
VERTEX
  5
2F5
  8
0
 10
1077.690727992951
 20
-274.9999999999999
 30
0.0
 42
0.0392279058755294
  0
VERTEX
  5
2F6
  8
0
 10
1365.511050878326
 20
-295.0
 30
0.0
 42
25.49205667957382
  0
SEQEND
  5
2F4
  8
0
  0
POLYLINE
  5
24A
  8
0
 66
     1
 10
0.0
 20
0.0
 30
0.0
  0
VERTEX
  5
2F7
  8
0
 10
1432.89634308487
 20
-34.38584119291284
 30
0.0
  0
VERTEX
  5
2F8
  8
0
 10
1415.897241653632
 20
-37.93253245539869
 30
0.0
  0
VERTEX
  5
2F9
  8
0
 10
1399.471757823021
 20
-42.99933373966068
 30
0.0
  0
VERTEX
  5
2FA
  8
0
 10
1383.567744538436
 20
-49.44805322553732
 30
0.0
  0
VERTEX
  5
2FB
  8
0
 10
1368.133054745275
 20
-57.14049909286717
 30
0.0
  0
VERTEX
  5
2FC
  8
0
 10
1353.115541388934
 20
-65.93847952148872
 30
0.0
  0
VERTEX
  5
2FD
  8
0
 10
1338.463057414812
 20
-75.70380269124054
 30
0.0
  0
VERTEX
  5
2FE
  8
0
 10
1324.123455768304
 20
-86.29827678196116
 30
0.0
  0
VERTEX
  5
2FF
  8
0
 10
1310.04458939481
 20
-97.58370997348909
 30
0.0
  0
VERTEX
  5
300
  8
0
 10
1296.174311239726
 20
-109.4219104456629
 30
0.0
  0
VERTEX
  5
301
  8
0
 10
1282.46047424845
 20
-121.6746863783211
 30
0.0
  0
VERTEX
  5
302
  8
0
 10
1268.850931366379
 20
-134.2038459513022
 30
0.0
  0
VERTEX
  5
303
  8
0
 10
1255.29353553891
 20
-146.8711973444449
 30
0.0
  0
VERTEX
  5
304
  8
0
 10
1241.736139711442
 20
-159.5385487375874
 30
0.0
  0
VERTEX
  5
305
  8
0
 10
1228.126596829371
 20
-172.0677083105686
 30
0.0
  0
VERTEX
  5
306
  8
0
 10
1214.412759838095
 20
-184.3204842432268
 30
0.0
  0
VERTEX
  5
307
  8
0
 10
1200.542481683011
 20
-196.1586847154006
 30
0.0
  0
VERTEX
  5
308
  8
0
 10
1186.463615309516
 20
-207.4441179069285
 30
0.0
  0
VERTEX
  5
309
  8
0
 10
1172.12401366301
 20
-218.0385919976492
 30
0.0
  0
VERTEX
  5
30A
  8
0
 10
1157.471529688887
 20
-227.803915167401
 30
0.0
  0
VERTEX
  5
30B
  8
0
 10
1142.454016332546
 20
-236.6018955960225
 30
0.0
  0
VERTEX
  5
30C
  8
0
 10
1127.019326539385
 20
-244.2943414633524
 30
0.0
  0
VERTEX
  5
30D
  8
0
 10
1111.1153132548
 20
-250.743060949229
 30
0.0
  0
VERTEX
  5
30E
  8
0
 10
1094.689829424189
 20
-255.809862233491
 30
0.0
  0
VERTEX
  5
30F
  8
0
 10
1077.69072809172
 20
-259.3565534803335
 30
0.0
  0
SEQEND
  5
310
  8
0
  0
POLYLINE
  5
24B
  8
0
 66
     1
 10
0.0
 20
0.0
 30
0.0
 40
9.0
 41
9.0
  0
VERTEX
  5
312
  8
0
 10
1649.999999999999
 20
0.0
 30
0.0
  0
VERTEX
  5
313
  8
0
 10
1432.850379862024
 20
-34.39312725260049
 30
0.0
  0
SEQEND
  5
311
  8
0
  0
POLYLINE
  5
24C
  8
0
 66
     1
 10
0.0
 20
0.0
 30
0.0
 40
9.0
 41
9.0
  0
VERTEX
  5
315
  8
0
 10
1077.690727992951
 20
-259.3565534959769
 30
0.0
 42
0.1424900957257582
  0
VERTEX
  5
316
  8
0
 10
1255.29353553891
 20
-146.8711973444449
 30
0.0
 42
-0.1332566134228551
  0
VERTEX
  5
317
  8
0
 10
1432.850379862024
 20
-34.39312725260049
 30
0.0
 42
-7.505575261531999
  0
SEQEND
  5
314
  8
0
  0
POLYLINE
  5
24D
  8
0
 66
     1
 10
0.0
 20
0.0
 30
0.0
  0
VERTEX
  5
318
  8
0
 10
446.3065021785401
 20
-46.93033951206928
 30
0.0
  0
VERTEX
  5
319
  8
0
 10
469.7335234263891
 20
-51.29091506738813
 30
0.0
  0
VERTEX
  5
31A
  8
0
 10
492.8379303273804
 20
-56.8262004314515
 30
0.0
  0
VERTEX
  5
31B
  8
0
 10
515.649074878322
 20
-63.42925513659279
 30
0.0
  0
VERTEX
  5
31C
  8
0
 10
538.196309076022
 20
-70.99313871514536
 30
0.0
  0
VERTEX
  5
31D
  8
0
 10
560.508984917288
 20
-79.41091069944261
 30
0.0
  0
VERTEX
  5
31E
  8
0
 10
582.616454398928
 20
-88.57563062181792
 30
0.0
  0
VERTEX
  5
31F
  8
0
 10
604.54806951775
 20
-98.38035801460467
 30
0.0
  0
VERTEX
  5
320
  8
0
 10
626.3331822705619
 20
-108.7181524101362
 30
0.0
  0
VERTEX
  5
321
  8
0
 10
648.0011446541716
 20
-119.482073340746
 30
0.0
  0
VERTEX
  5
322
  8
0
 10
669.581308665387
 20
-130.5651803387673
 30
0.0
  0
VERTEX
  5
323
  8
0
 10
691.103026301016
 20
-141.8605329365337
 30
0.0
  0
VERTEX
  5
324
  8
0
 10
712.5956495578666
 20
-153.2611906663784
 30
0.0
  0
VERTEX
  5
325
  8
0
 10
734.0885304327467
 20
-164.6602130606348
 30
0.0
  0
VERTEX
  5
326
  8
0
 10
755.6110209224642
 20
-175.9506596516363
 30
0.0
  0
VERTEX
  5
327
  8
0
 10
777.1924730238269
 20
-187.0255899717163
 30
0.0
  0
VERTEX
  5
328
  8
0
 10
798.8622387336429
 20
-197.7780635532082
 30
0.0
  0
VERTEX
  5
329
  8
0
 10
820.6496700487199
 20
-208.1011399284454
 30
0.0
  0
VERTEX
  5
32A
  8
0
 10
842.5841189658662
 20
-217.8878786297612
 30
0.0
  0
VERTEX
  5
32B
  8
0
 10
864.6949374818894
 20
-227.031339189489
 30
0.0
  0
VERTEX
  5
32C
  8
0
 10
887.0114775935974
 20
-235.4245811399622
 30
0.0
  0
VERTEX
  5
32D
  8
0
 10
909.5630912977983
 20
-242.9606640135143
 30
0.0
  0
VERTEX
  5
32E
  8
0
 10
932.3791305912999
 20
-249.5326473424784
 30
0.0
  0
VERTEX
  5
32F
  8
0
 10
955.48894747091
 20
-255.0335906591882
 30
0.0
  0
VERTEX
  5
330
  8
0
 10
978.9218938346422
 20
-259.3565534804977
 30
0.0
  0
SEQEND
  5
331
  8
0
  0
POLYLINE
  5
24E
  8
0
 66
     1
 10
0.0
 20
0.0
 30
0.0
 40
9.0
 41
9.0
  0
VERTEX
  5
333
  8
0
 10
446.3065021785401
 20
-46.93033951206928
 30
0.0
 42
-0.0681972330836739
  0
VERTEX
  5
334
  8
0
 10
610.8374685696062
 20
-101.3084271785691
 30
0.0
 42
-0.0134831635462604
  0
VERTEX
  5
335
  8
0
 10
712.5956495578666
 20
-153.2611906663784
 30
0.0
 42
0.0114483973293227
  0
VERTEX
  5
336
  8
0
 10
810.2758969343115
 20
-203.2541098874017
 30
0.0
 42
0.0730063924024951
  0
VERTEX
  5
337
  8
0
 10
978.9218939334369
 20
-259.3565534959769
 30
0.0
 42
9.764655231751782
  0
SEQEND
  5
332
  8
0
  0
POLYLINE
  5
24F
  8
0
 66
     1
 10
0.0
 20
0.0
 30
0.0
 70
     1
  0
VERTEX
  5
339
  8
0
 10
86.0599766684054
 20
-228.7092131323564
 30
0.0
  0
VERTEX
  5
33A
  8
0
 10
556.732094541537
 20
-228.7092131323564
 30
0.0
  0
VERTEX
  5
33B
  8
0
 10
556.732094541537
 20
-166.5900503673745
 30
0.0
  0
VERTEX
  5
33C
  8
0
 10
86.0599766684054
 20
-166.5900503673745
 30
0.0
  0
SEQEND
  5
338
  8
0
  0
POLYLINE
  5
250
  8
0
 66
     1
 10
0.0
 20
0.0
 30
0.0
 70
     1
  0
VERTEX
  5
33E
  8
0
 10
1507.633124559336
 20
-259.7687945148473
 30
0.0
  0
VERTEX
  5
33F
  8
0
 10
1758.498974187147
 20
-259.7687945148473
 30
0.0
  0
VERTEX
  5
340
  8
0
 10
1758.498974187147
 20
-183.314440342562
 30
0.0
  0
VERTEX
  5
341
  8
0
 10
1507.633124559336
 20
-183.314440342562
 30
0.0
  0
SEQEND
  5
33D
  8
0
  0
POLYLINE
  5
251
  8
0
 66
     1
 10
0.0
 20
0.0
 30
0.0
 40
9.0
 41
9.0
  0
VERTEX
  5
343
  8
0
 10
32.05889547509491
 20
-25.0
 30
0.0
  0
VERTEX
  5
344
  8
0
 10
307.8437878668747
 20
-25.0
 30
0.0
  0
SEQEND
  5
342
  8
0
  0
POLYLINE
  5
252
  8
0
 66
     1
 10
0.0
 20
0.0
 30
0.0
 40
9.0
 41
9.0
  0
VERTEX
  5
346
  8
0
 10
1342.267747200824
 20
0.0
 30
0.0
  0
VERTEX
  5
347
  8
0
 10
1125.118127062848
 20
-34.39312725260049
 30
0.0
  0
SEQEND
  5
345
  8
0
  0
POLYLINE
  5
253
  8
0
 66
     1
 10
0.0
 20
0.0
 30
0.0
 40
9.0
 41
9.0
  0
VERTEX
  5
349
  8
0
 10
845.7911288307488
 20
-34.39312725260049
 30
0.0
  0
VERTEX
  5
34A
  8
0
 10
1125.118127062848
 20
-34.39312725260049
 30
0.0
  0
SEQEND
  5
348
  8
0
  0
POLYLINE
  5
254
  8
0
 66
     1
 10
0.0
 20
0.0
 30
0.0
 40
9.0
 41
9.0
  0
VERTEX
  5
34C
  8
0
 10
845.7911288307488
 20
-24.18162619570956
 30
0.0
  0
VERTEX
  5
34D
  8
0
 10
845.7911288307488
 20
-44.60462830949146
 30
0.0
  0
SEQEND
  5
34B
  8
0
  0
POLYLINE
  5
255
  8
0
 66
     1
 10
0.0
 20
0.0
 30
0.0
 40
9.0
 41
9.0
  0
VERTEX
  5
34F
  8
0
 10
1767.941104524903
 20
-14.78849894310906
 30
0.0
  0
VERTEX
  5
350
  8
0
 10
1767.941104524903
 20
-35.21150105689097
 30
0.0
  0
SEQEND
  5
34E
  8
0
  0
TEXT
  5
256
  8
0
 10
767.6371761293931
 20
-140.633318884108
 30
0.0
 40
70.0
  1
NRE-501
  0
TEXT
  5
257
  8
0
 10
81.93111510471746
 20
-134.8213937097109
 30
0.0
 40
70.0
  1
1800
  0
TEXT
  5
258
  8
0
 10
930.8109995352539
 20
-197.400912484622
 30
0.0
 40
30.0
  1
Kai 4
  0
POLYLINE
  5
259
  8
0
 66
     1
 10
0.0
 20
0.0
 30
0.0
 40
9.0
 41
9.0
  0
VERTEX
  5
352
  8
0
 10
32.05889547509491
 20
-14.78849894310901
 30
0.0
  0
VERTEX
  5
353
  8
0
 10
32.05889547509491
 20
-35.21150105689091
 30
0.0
  0
SEQEND
  5
351
  8
0
  0
TEXT
  5
25A
  8
0
 10
1434.373327089772
 20
-120.2372784150527
 30
0.0
 40
30.0
  1
JHaf
  0
ENDBLK
  5
284
  8
0
  0
BLOCK
  8
0
  2
NRE-500
 70
     0
 10
0.0
 20
0.0
 30
0.0
  3
NRE-500
  1

  0
TEXT
  5
25F
  8
0
 10
45.11803159779151
 20
-99.50832414184583
 30
0.0
 40
50.0
  1
NRE
  0
TEXT
  5
260
  8
0
 10
41.42768808704216
 20
-191.7135253860093
 30
0.0
 40
50.0
  1
500
  0
POLYLINE
  5
261
  8
0
 66
     1
 10
0.0
 20
0.0
 30
0.0
 40
9.0
 41
9.0
  0
VERTEX
  5
355
  8
0
 10
200.0
 20
-0.0000000000000284
 30
0.0
  0
VERTEX
  5
356
  8
0
 10
0.0
 20
0.0
 30
0.0
  0
SEQEND
  5
354
  8
0
  0
LINE
  5
262
  8
0
 10
0.0
 20
0.0
 30
0.0
 11
0.0
 21
200.0
 31
0.0
  0
LINE
  5
263
  8
0
 10
0.0
 20
200.0
 30
0.0
 11
200.0
 21
80.12414387419079
 31
0.0
  0
LINE
  5
264
  8
0
 10
0.0
 20
0.0
 30
0.0
 11
0.0
 21
-200.0
 31
0.0
  0
LINE
  5
265
  8
0
 10
0.0
 20
-200.0
 30
0.0
 11
200.0
 21
-419.8758561258092
 31
0.0
  0
POLYLINE
  5
266
  8
0
 66
     1
 10
0.0
 20
0.0
 30
0.0
 40
9.0
 41
9.0
  0
VERTEX
  5
358
  8
0
 10
200.0000000000001
 20
-274.8758561258091
 30
0.0
  0
VERTEX
  5
359
  8
0
 10
152.7310262791211
 20
-274.8758561258091
 30
0.0
  0
SEQEND
  5
357
  8
0
  0
POLYLINE
  5
267
  8
0
 66
     1
 10
0.0
 20
0.0
 30
0.0
 40
9.0
 41
9.0
  0
VERTEX
  5
35B
  8
0
 10
152.7310262791211
 20
-264.6643550689182
 30
0.0
  0
VERTEX
  5
35C
  8
0
 10
152.7310262791211
 20
-285.0873571827001
 30
0.0
  0
SEQEND
  5
35A
  8
0
  0
POLYLINE
  5
268
  8
0
 66
     1
 10
0.0
 20
0.0
 30
0.0
 40
9.0
 41
9.0
  0
VERTEX
  5
35E
  8
0
 10
200.0000000000001
 20
-299.8758561258091
 30
0.0
  0
VERTEX
  5
35F
  8
0
 10
152.7310262791211
 20
-299.8758561258091
 30
0.0
  0
SEQEND
  5
35D
  8
0
  0
POLYLINE
  5
269
  8
0
 66
     1
 10
0.0
 20
0.0
 30
0.0
 40
9.0
 41
9.0
  0
VERTEX
  5
361
  8
0
 10
152.7310262791211
 20
-289.6643550689182
 30
0.0
  0
VERTEX
  5
362
  8
0
 10
152.7310262791211
 20
-310.0873571827001
 30
0.0
  0
SEQEND
  5
360
  8
0
  0
TEXT
  5
26A
  8
0
 10
40.73548551158063
 20
79.42686095015168
 30
0.0
 40
30.0
  1
200
  0
TEXT
  5
26B
  8
0
 10
53.92418848042689
 20
-243.4548797426794
 30
0.0
 40
30.0
  1
JHaf
  0
ENDBLK
  5
286
  8
0
  0
BLOCK
  8
0
  2
NRE-502
 70
     0
 10
0.0
 20
0.0
 30
0.0
  3
NRE-502
  1

  0
TEXT
  5
270
  8
0
 10
45.11803159779083
 20
-99.3841802676549
 30
0.0
 40
50.0
  1
NRE
  0
TEXT
  5
271
  8
0
 10
41.42768808704204
 20
-191.5893815118184
 30
0.0
 40
50.0
  1
502
  0
LINE
  5
272
  8
0
 10
200.0
 20
-0.0000000000000284
 30
0.0
 11
200.0
 21
200.0
 31
0.0
  0
LINE
  5
273
  8
0
 10
200.0
 20
200.0
 30
0.0
 11
0.0
 21
80.12414387419082
 31
0.0
  0
LINE
  5
274
  8
0
 10
200.0
 20
-0.0000000000000284
 30
0.0
 11
200.0
 21
-200.0
 31
0.0
  0
LINE
  5
275
  8
0
 10
200.0
 20
-200.0
 30
0.0
 11
0.0
 21
-419.8758561258092
 31
0.0
  0
POLYLINE
  5
276
  8
0
 66
     1
 10
0.0
 20
0.0
 30
0.0
 40
9.0
 41
9.0
  0
VERTEX
  5
364
  8
0
 10
0.0
 20
-294.875856125809
 30
0.0
  0
VERTEX
  5
365
  8
0
 10
47.26897372087842
 20
-294.8758561258091
 30
0.0
  0
SEQEND
  5
363
  8
0
  0
POLYLINE
  5
277
  8
0
 66
     1
 10
0.0
 20
0.0
 30
0.0
 40
9.0
 41
9.0
  0
VERTEX
  5
367
  8
0
 10
47.26897372087842
 20
-284.6643550689181
 30
0.0
  0
VERTEX
  5
368
  8
0
 10
47.26897372087842
 20
-305.0873571827
 30
0.0
  0
SEQEND
  5
366
  8
0
  0
POLYLINE
  5
278
  8
0
 66
     1
 10
0.0
 20
0.0
 30
0.0
 40
9.0
 41
9.0
  0
VERTEX
  5
36A
  8
0
 10
0.0
 20
-319.875856125809
 30
0.0
  0
VERTEX
  5
36B
  8
0
 10
47.26897372087842
 20
-319.8758561258091
 30
0.0
  0
SEQEND
  5
369
  8
0
  0
POLYLINE
  5
279
  8
0
 66
     1
 10
0.0
 20
0.0
 30
0.0
 40
9.0
 41
9.0
  0
VERTEX
  5
36D
  8
0
 10
47.26897372087842
 20
-309.6643550689181
 30
0.0
  0
VERTEX
  5
36E
  8
0
 10
47.26897372087842
 20
-330.0873571827
 30
0.0
  0
SEQEND
  5
36C
  8
0
  0
POLYLINE
  5
27A
  8
0
 66
     1
 10
0.0
 20
0.0
 30
0.0
 40
9.0
 41
9.0
  0
VERTEX
  5
370
  8
0
 10
0.0
 20
0.0
 30
0.0
  0
VERTEX
  5
371
  8
0
 10
200.0
 20
-0.0000000000000284
 30
0.0
  0
SEQEND
  5
36F
  8
0
  0
TEXT
  5
27B
  8
0
 10
29.73139679449196
 20
-261.2327824316806
 30
0.0
 40
30.0
  1
JHaf
  0
TEXT
  5
27C
  8
0
 10
47.84950107337636
 20
62.95340856313919
 30
0.0
 40
30.0
  1
200
  0
ENDBLK
  5
288
  8
0
  0
ENDSEC
  0
SECTION
  2
ENTITIES
  0
INSERT
  5
25D
  8
0
  2
NRE-501
 10
-121.3548856863501
 20
45.16005105970073
 30
0.0
  0
INSERT
  5
26E
  8
0
  2
NRE-500
 10
-321.3548856863513
 20
45.03590718550996
 30
0.0
  0
INSERT
  5
27F
  8
0
  2
NRE-502
 10
1678.645114313649
 20
45.03590718550991
 30
0.0
  0
ENDSEC
  0
EOF
