  0
SECTION
  2
HEADER
  9
$ACADVER
  1
AC1015
  9
$ACADMAINTVER
 70
     6
  9
$DWGCODEPAGE
  3
ANSI_1252
  9
$INSBASE
 10
0.0
 20
0.0
 30
0.0
  9
$EXTMIN
 10
-100.0
 20
-903.032391759548
 30
0.0
  9
$EXTMAX
 10
2340.690319754845
 20
358.2749941551933
 30
0.0
  9
$LIMMIN
 10
0.0
 20
0.0
  9
$LIMMAX
 10
420.0
 20
297.0
  9
$ORTHOMODE
 70
     0
  9
$REGENMODE
 70
     1
  9
$FILLMODE
 70
     1
  9
$QTEXTMODE
 70
     0
  9
$MIRRTEXT
 70
     0
  9
$LTSCALE
 40
1.0
  9
$ATTMODE
 70
     1
  9
$TEXTSIZE
 40
2.5
  9
$TRACEWID
 40
1.0
  9
$TEXTSTYLE
  7
Standard
  9
$CLAYER
  8
0
  9
$CELTYPE
  6
ByLayer
  9
$CECOLOR
 62
   256
  9
$CELTSCALE
 40
1.0
  9
$DISPSILH
 70
     0
  9
$DIMSCALE
 40
1.0
  9
$DIMASZ
 40
2.5
  9
$DIMEXO
 40
0.625
  9
$DIMDLI
 40
3.75
  9
$DIMRND
 40
0.0
  9
$DIMDLE
 40
0.0
  9
$DIMEXE
 40
1.25
  9
$DIMTP
 40
0.0
  9
$DIMTM
 40
0.0
  9
$DIMTXT
 40
2.5
  9
$DIMCEN
 40
2.5
  9
$DIMTSZ
 40
0.0
  9
$DIMTOL
 70
     0
  9
$DIMLIM
 70
     0
  9
$DIMTIH
 70
     0
  9
$DIMTOH
 70
     0
  9
$DIMSE1
 70
     0
  9
$DIMSE2
 70
     0
  9
$DIMTAD
 70
     1
  9
$DIMZIN
 70
     8
  9
$DIMBLK
  1

  9
$DIMASO
 70
     1
  9
$DIMSHO
 70
     1
  9
$DIMPOST
  1

  9
$DIMAPOST
  1

  9
$DIMALT
 70
     0
  9
$DIMALTD
 70
     3
  9
$DIMALTF
 40
0.03937007874016
  9
$DIMLFAC
 40
1.0
  9
$DIMTOFL
 70
     1
  9
$DIMTVP
 40
0.0
  9
$DIMTIX
 70
     0
  9
$DIMSOXD
 70
     0
  9
$DIMSAH
 70
     0
  9
$DIMBLK1
  1

  9
$DIMBLK2
  1

  9
$DIMSTYLE
  2
ISO-25
  9
$DIMCLRD
 70
     0
  9
$DIMCLRE
 70
     0
  9
$DIMCLRT
 70
     0
  9
$DIMTFAC
 40
1.0
  9
$DIMGAP
 40
0.625
  9
$DIMJUST
 70
     0
  9
$DIMSD1
 70
     0
  9
$DIMSD2
 70
     0
  9
$DIMTOLJ
 70
     0
  9
$DIMTZIN
 70
     8
  9
$DIMALTZ
 70
     0
  9
$DIMALTTZ
 70
     0
  9
$DIMUPT
 70
     0
  9
$DIMDEC
 70
     2
  9
$DIMTDEC
 70
     2
  9
$DIMALTU
 70
     2
  9
$DIMALTTD
 70
     3
  9
$DIMTXSTY
  7
Standard
  9
$DIMAUNIT
 70
     0
  9
$DIMADEC
 70
     0
  9
$DIMALTRND
 40
0.0
  9
$DIMAZIN
 70
     0
  9
$DIMDSEP
 70
    44
  9
$DIMATFIT
 70
     3
  9
$DIMFRAC
 70
     0
  9
$DIMLDRBLK
  1

  9
$DIMLUNIT
 70
     2
  9
$DIMLWD
 70
    -2
  9
$DIMLWE
 70
    -2
  9
$DIMTMOVE
 70
     0
  9
$LUNITS
 70
     2
  9
$LUPREC
 70
     4
  9
$SKETCHINC
 40
1.0
  9
$FILLETRAD
 40
0.0
  9
$AUNITS
 70
     0
  9
$AUPREC
 70
     0
  9
$MENU
  1
.
  9
$ELEVATION
 40
0.0
  9
$PELEVATION
 40
0.0
  9
$THICKNESS
 40
0.0
  9
$LIMCHECK
 70
     0
  9
$CHAMFERA
 40
0.0
  9
$CHAMFERB
 40
0.0
  9
$CHAMFERC
 40
0.0
  9
$CHAMFERD
 40
0.0
  9
$SKPOLY
 70
     0
  9
$TDCREATE
 40
2453353.758792488
  9
$TDUCREATE
 40
2453353.717125822
  9
$TDUPDATE
 40
2458478.69960493
  9
$TDUUPDATE
 40
2458478.657938264
  9
$TDINDWG
 40
9791572.065866817
  9
$TDUSRTIMER
 40
0.0036899537
  9
$USRTIMER
 70
     1
  9
$ANGBASE
 50
0.0
  9
$ANGDIR
 70
     0
  9
$PDMODE
 70
     0
  9
$PDSIZE
 40
0.0
  9
$PLINEWID
 40
9.0
  9
$SPLFRAME
 70
     0
  9
$SPLINETYPE
 70
     6
  9
$SPLINESEGS
 70
     8
  9
$HANDSEED
  5
2DA
  9
$SURFTAB1
 70
     6
  9
$SURFTAB2
 70
     6
  9
$SURFTYPE
 70
     6
  9
$SURFU
 70
     6
  9
$SURFV
 70
     6
  9
$UCSBASE
  2

  9
$UCSNAME
  2

  9
$UCSORG
 10
0.0
 20
0.0
 30
0.0
  9
$UCSXDIR
 10
1.0
 20
0.0
 30
0.0
  9
$UCSYDIR
 10
0.0
 20
1.0
 30
0.0
  9
$UCSORTHOREF
  2

  9
$UCSORTHOVIEW
 70
     0
  9
$UCSORGTOP
 10
0.0
 20
0.0
 30
0.0
  9
$UCSORGBOTTOM
 10
0.0
 20
0.0
 30
0.0
  9
$UCSORGLEFT
 10
0.0
 20
0.0
 30
0.0
  9
$UCSORGRIGHT
 10
0.0
 20
0.0
 30
0.0
  9
$UCSORGFRONT
 10
0.0
 20
0.0
 30
0.0
  9
$UCSORGBACK
 10
0.0
 20
0.0
 30
0.0
  9
$PUCSBASE
  2

  9
$PUCSNAME
  2

  9
$PUCSORG
 10
0.0
 20
0.0
 30
0.0
  9
$PUCSXDIR
 10
1.0
 20
0.0
 30
0.0
  9
$PUCSYDIR
 10
0.0
 20
1.0
 30
0.0
  9
$PUCSORTHOREF
  2

  9
$PUCSORTHOVIEW
 70
     0
  9
$PUCSORGTOP
 10
0.0
 20
0.0
 30
0.0
  9
$PUCSORGBOTTOM
 10
0.0
 20
0.0
 30
0.0
  9
$PUCSORGLEFT
 10
0.0
 20
0.0
 30
0.0
  9
$PUCSORGRIGHT
 10
0.0
 20
0.0
 30
0.0
  9
$PUCSORGFRONT
 10
0.0
 20
0.0
 30
0.0
  9
$PUCSORGBACK
 10
0.0
 20
0.0
 30
0.0
  9
$USERI1
 70
     0
  9
$USERI2
 70
     0
  9
$USERI3
 70
     0
  9
$USERI4
 70
     0
  9
$USERI5
 70
     0
  9
$USERR1
 40
0.0
  9
$USERR2
 40
0.0
  9
$USERR3
 40
0.0
  9
$USERR4
 40
0.0
  9
$USERR5
 40
0.0
  9
$WORLDVIEW
 70
     1
  9
$SHADEDGE
 70
     3
  9
$SHADEDIF
 70
    70
  9
$TILEMODE
 70
     1
  9
$MAXACTVP
 70
    64
  9
$PINSBASE
 10
0.0
 20
0.0
 30
0.0
  9
$PLIMCHECK
 70
     0
  9
$PEXTMIN
 10
1.000000000000000E+20
 20
1.000000000000000E+20
 30
1.000000000000000E+20
  9
$PEXTMAX
 10
-1.000000000000000E+20
 20
-1.000000000000000E+20
 30
-1.000000000000000E+20
  9
$PLIMMIN
 10
0.0
 20
0.0
  9
$PLIMMAX
 10
0.0
 20
0.0
  9
$UNITMODE
 70
     0
  9
$VISRETAIN
 70
     1
  9
$PLINEGEN
 70
     0
  9
$PSLTSCALE
 70
     1
  9
$TREEDEPTH
 70
  3020
  9
$CMLSTYLE
  2
Standard
  9
$CMLJUST
 70
     0
  9
$CMLSCALE
 40
20.0
  9
$PROXYGRAPHICS
 70
     1
  9
$MEASUREMENT
 70
     1
  9
$CELWEIGHT
370
    -1
  9
$ENDCAPS
280
     0
  9
$JOINSTYLE
280
     0
  9
$LWDISPLAY
290
     0
  9
$INSUNITS
 70
     4
  9
$HYPERLINKBASE
  1

  9
$STYLESHEET
  1

  9
$XEDIT
290
     0
  9
$CEPSNTYPE
380
     0
  9
$PSTYLEMODE
290
     1
  9
$FINGERPRINTGUID
  2
{5559452E-1E62-4159-8551-BF76FFF3E7E8}
  9
$VERSIONGUID
  2
{3CEB9EF8-4431-4551-B596-6734A9F966A9}
  9
$EXTNAMES
290
     1
  9
$PSVPSCALE
 40
0.0
  9
$OLESTARTUP
290
     0
  0
ENDSEC
  0
SECTION
  2
CLASSES
  0
CLASS
  1
ACDBDICTIONARYWDFLT
  2
AcDbDictionaryWithDefault
  3
ObjectDBX Classes
 90
        0
280
     0
281
     0
  0
CLASS
  1
ACDBPLACEHOLDER
  2
AcDbPlaceHolder
  3
ObjectDBX Classes
 90
        0
280
     0
281
     0
  0
CLASS
  1
LAYOUT
  2
AcDbLayout
  3
ObjectDBX Classes
 90
        0
280
     0
281
     0
  0
CLASS
  1
DICTIONARYVAR
  2
AcDbDictionaryVar
  3
ObjectDBX Classes
 90
        0
280
     0
281
     0
  0
CLASS
  1
TABLESTYLE
  2
AcDbTableStyle
  3
ObjectDBX Classes
 90
     4095
280
     0
281
     0
  0
CLASS
  1
SCALE
  2
AcDbScale
  3
ObjectDBX Classes
 90
     1153
280
     0
281
     0
  0
CLASS
  1
VISUALSTYLE
  2
AcDbVisualStyle
  3
ObjectDBX Classes
 90
     4095
280
     0
281
     0
  0
CLASS
  1
MATERIAL
  2
AcDbMaterial
  3
ObjectDBX Classes
 90
     1153
280
     0
281
     0
  0
CLASS
  1
MLEADERSTYLE
  2
AcDbMLeaderStyle
  3
ACDB_MLEADERSTYLE_CLASS
 90
     4095
280
     0
281
     0
  0
ENDSEC
  0
SECTION
  2
TABLES
  0
TABLE
  2
VPORT
  5
8
330
0
100
AcDbSymbolTable
 70
     2
  0
VPORT
  5
97
330
8
100
AcDbSymbolTableRecord
100
AcDbViewportTableRecord
  2
*Active
 70
     0
 10
0.0
 20
0.0
 11
1.0
 21
1.0
 12
1295.285633256254
 22
-188.2717016310555
 13
0.0
 23
0.0
 14
10.0
 24
10.0
 15
10.0
 25
10.0
 16
0.0
 26
0.0
 36
1.0
 17
0.0
 27
0.0
 37
0.0
 40
1741.443710013753
 41
2.104651162790698
 42
50.0
 43
0.0
 44
0.0
 50
0.0
 51
0.0
 71
    16
 72
  1000
 73
     1
 74
     3
 75
     0
 76
     0
 77
     0
 78
     0
281
     0
 65
     1
110
0.0
120
0.0
130
0.0
111
1.0
121
0.0
131
0.0
112
0.0
122
1.0
132
0.0
 79
     0
146
0.0
  0
ENDTAB
  0
TABLE
  2
LTYPE
  5
5
330
0
100
AcDbSymbolTable
 70
     1
  0
LTYPE
  5
14
330
5
100
AcDbSymbolTableRecord
100
AcDbLinetypeTableRecord
  2
ByBlock
 70
     0
  3

 72
    65
 73
     0
 40
0.0
  0
LTYPE
  5
15
330
5
100
AcDbSymbolTableRecord
100
AcDbLinetypeTableRecord
  2
ByLayer
 70
     0
  3

 72
    65
 73
     0
 40
0.0
  0
LTYPE
  5
16
330
5
100
AcDbSymbolTableRecord
100
AcDbLinetypeTableRecord
  2
Continuous
 70
     0
  3
Solid line
 72
    65
 73
     0
 40
0.0
  0
ENDTAB
  0
TABLE
  2
LAYER
  5
2
330
0
100
AcDbSymbolTable
 70
     1
  0
LAYER
  5
10
330
2
100
AcDbSymbolTableRecord
100
AcDbLayerTableRecord
  2
0
 70
     0
 62
     7
  6
Continuous
370
    -3
390
F
  0
ENDTAB
  0
TABLE
  2
STYLE
  5
3
330
0
100
AcDbSymbolTable
 70
     1
  0
STYLE
  5
11
330
3
100
AcDbSymbolTableRecord
100
AcDbTextStyleTableRecord
  2
Standard
 70
     0
 40
0.0
 41
1.0
 50
0.0
 71
     0
 42
2.5
  3
txt
  4

  0
ENDTAB
  0
TABLE
  2
VIEW
  5
6
330
0
100
AcDbSymbolTable
 70
     0
  0
ENDTAB
  0
TABLE
  2
UCS
  5
7
330
0
100
AcDbSymbolTable
 70
     0
  0
ENDTAB
  0
TABLE
  2
APPID
  5
9
330
0
100
AcDbSymbolTable
 70
     2
  0
APPID
  5
12
330
9
100
AcDbSymbolTableRecord
100
AcDbRegAppTableRecord
  2
ACAD
 70
     0
  0
APPID
  5
244
330
9
100
AcDbSymbolTableRecord
100
AcDbRegAppTableRecord
  2
ACAD_MLEADERVER
 70
     0
  0
ENDTAB
  0
TABLE
  2
DIMSTYLE
  5
A
330
0
100
AcDbSymbolTable
 70
     2
100
AcDbDimStyleTable
  0
DIMSTYLE
105
27
330
A
100
AcDbSymbolTableRecord
100
AcDbDimStyleTableRecord
  2
Standard
 70
     0
178
     0
278
     0
340
11
  0
DIMSTYLE
105
29
330
A
100
AcDbSymbolTableRecord
100
AcDbDimStyleTableRecord
  2
ISO-25
 70
     0
 41
2.5
 42
0.625
 43
3.75
 44
1.25
 73
     0
 74
     0
 77
     1
 78
     8
140
2.5
141
2.5
143
0.03937007874016
147
0.625
171
     3
172
     1
178
     0
271
     2
272
     2
274
     3
278
    44
283
     0
284
     8
340
11
  0
ENDTAB
  0
TABLE
  2
BLOCK_RECORD
  5
1
330
0
100
AcDbSymbolTable
 70
     2
  0
BLOCK_RECORD
  5
1F
330
1
100
AcDbSymbolTableRecord
100
AcDbBlockTableRecord
  2
*Model_Space
340
22
  0
BLOCK_RECORD
  5
73
330
1
100
AcDbSymbolTableRecord
100
AcDbBlockTableRecord
  2
*Paper_Space
340
74
  0
BLOCK_RECORD
  5
25
330
1
100
AcDbSymbolTableRecord
100
AcDbBlockTableRecord
  2
*Paper_Space0
340
28
  0
BLOCK_RECORD
  5
241
330
1
100
AcDbSymbolTableRecord
100
AcDbBlockTableRecord
  2
NRE-220
340
0
102
{BLKREFS
331
0
331
2D7
102
}
  0
ENDTAB
  0
ENDSEC
  0
SECTION
  2
BLOCKS
  0
BLOCK
  5
20
330
1F
100
AcDbEntity
  8
0
100
AcDbBlockBegin
  2
*Model_Space
 70
     0
 10
0.0
 20
0.0
 30
0.0
  3
*Model_Space
  1

  0
ENDBLK
  5
21
330
1F
100
AcDbEntity
  8
0
100
AcDbBlockEnd
  0
BLOCK
  5
75
330
73
100
AcDbEntity
 67
     1
  8
0
100
AcDbBlockBegin
  2
*Paper_Space
 70
     0
 10
0.0
 20
0.0
 30
0.0
  3
*Paper_Space
  1

  0
ENDBLK
  5
76
330
73
100
AcDbEntity
 67
     1
  8
0
100
AcDbBlockEnd
  0
BLOCK
  5
245
330
25
100
AcDbEntity
  8
0
100
AcDbBlockBegin
  2
*Paper_Space0
 70
     0
 10
0.0
 20
0.0
 30
0.0
  3
*Paper_Space0
  1

  0
ENDBLK
  5
246
330
25
100
AcDbEntity
  8
0
100
AcDbBlockEnd
  0
BLOCK
  5
247
330
241
100
AcDbEntity
  8
0
100
AcDbBlockBegin
  2
NRE-220
 70
     0
 10
0.0
 20
0.0
 30
0.0
  3
NRE-220
  1

  0
LWPOLYLINE
  5
2A2
330
241
100
AcDbEntity
  8
0
100
AcDbPolyline
 90
        2
 70
     0
 43
9.0
 10
540.6903197548253
 20
158.2749941551928
 10
2340.690319754845
 20
158.2749941551924
  0
LWPOLYLINE
  5
2A3
330
241
100
AcDbEntity
  8
0
100
AcDbPolyline
 90
        2
 70
     0
 43
9.0
 10
0.0
 20
0.0000000000001137
 42
-0.1316524975873932
 10
590.6903197548289
 20
158.2749941551948
 42
-7.595754112725312
  0
LWPOLYLINE
  5
2A4
330
241
100
AcDbEntity
  8
0
100
AcDbPolyline
 90
        2
 70
     0
 43
9.0
 10
2156.215945080403
 20
238.6481051835709
 10
2156.215945080403
 20
217.9018831268156
  0
LWPOLYLINE
  5
2A5
330
241
100
AcDbEntity
  8
0
100
AcDbPolyline
 90
        2
 70
     0
 43
9.0
 10
1759.082007303978
 20
113.0062616828979
 10
1762.405858326756
 20
92.52803558768687
  0
LWPOLYLINE
  5
2A6
330
241
100
AcDbEntity
  8
0
100
AcDbPolyline
 90
        2
 70
     0
 43
9.0
 10
63.49286723897086
 20
83.66500382298841
 10
71.02792246272975
 20
64.33552704778549
  0
TEXT
  5
2A7
330
241
100
AcDbEntity
  8
0
100
AcDbText
 10
536.2323155422096
 20
-224.6581901521151
 30
0.0
 40
100.0
  1
Altzenau
100
AcDbText
  0
TEXT
  5
2A8
330
241
100
AcDbEntity
  8
0
100
AcDbText
 10
1372.616985834484
 20
-224.6581901521151
 30
0.0
 40
50.0
  1
(maßstäblich)
100
AcDbText
  0
LINE
  5
2A9
330
241
100
AcDbEntity
  8
0
 62
     2
100
AcDbLine
 10
2340.690319754845
 20
-41.72500584480656
 30
0.0
 11
1832.606087595733
 21
-903.032391759548
 31
0.0
  0
LINE
  5
2AA
330
241
100
AcDbEntity
  8
0
 62
     2
100
AcDbLine
 10
100.0
 20
-173.2050807568846
 30
0.0
 11
530.5242878252086
 21
-903.0323917595462
 31
0.0
  0
LWPOLYLINE
  5
2AB
330
241
100
AcDbEntity
  8
0
100
AcDbPolyline
 90
        4
 70
     1
 43
0.0
 10
590.6903197548454
 20
-41.72500584480656
 10
590.6903197548454
 20
358.2749941551933
 10
1465.690319754845
 20
358.2749941551933
 10
1465.690319754845
 20
-41.72500584480656
  0
LWPOLYLINE
  5
2AC
330
241
100
AcDbEntity
  8
0
100
AcDbPolyline
 90
        4
 70
     1
 43
0.0
 10
1465.690319754845
 20
-41.72500584480656
 10
1465.690319754845
 20
358.2749941551933
 10
2340.690319754845
 20
358.2749941551933
 10
2340.690319754845
 20
-41.72500584480656
  0
LWPOLYLINE
  5
2AD
330
241
100
AcDbEntity
  8
0
100
AcDbPolyline
 90
        2
 70
     0
 43
9.0
 10
1165.690319754845
 20
193.2749941551934
 10
1329.690319754845
 20
193.2749941551934
  0
LWPOLYLINE
  5
2AE
330
241
100
AcDbEntity
  8
0
100
AcDbPolyline
 90
        2
 70
     0
 43
9.0
 10
1258.799297009624
 20
193.2749941551934
 10
1329.690319754845
 20
205.7749941551934
  0
LWPOLYLINE
  5
2AF
330
241
100
AcDbEntity
  8
0
100
AcDbPolyline
 90
        2
 70
     0
 43
9.0
 10
590.6903197548288
 20
158.2749941551948
 10
754.6903197548288
 20
158.2749941551948
  0
LWPOLYLINE
  5
2B0
330
241
100
AcDbEntity
  8
0
100
AcDbPolyline
 90
        2
 70
     0
 43
9.0
 10
683.7992970096075
 20
158.2749941551948
 10
754.6903197548288
 20
145.7749941551948
  0
LWPOLYLINE
  5
2B1
330
241
100
AcDbEntity
  8
0
100
AcDbPolyline
 90
        2
 70
     0
 43
9.0
 10
1830.690319754845
 20
158.2749941551924
 10
1666.690319754845
 20
158.2749941551924
  0
LWPOLYLINE
  5
2B2
330
241
100
AcDbEntity
  8
0
100
AcDbPolyline
 90
        2
 70
     0
 43
9.0
 10
1737.581342500067
 20
158.2749941551924
 10
1666.690319754845
 20
145.7749941551924
  0
LWPOLYLINE
  5
2B3
330
241
100
AcDbEntity
  8
0
100
AcDbPolyline
 90
        2
 70
     0
 43
9.0
 10
1666.690319754845
 20
158.2749941551924
 10
1502.690319754845
 20
158.2749941551924
  0
LWPOLYLINE
  5
2B4
330
241
100
AcDbEntity
  8
0
100
AcDbPolyline
 90
        2
 70
     0
 43
9.0
 10
1573.581342500067
 20
158.2749941551924
 10
1502.690319754845
 20
170.7749941551924
  0
LWPOLYLINE
  5
2B5
330
241
100
AcDbEntity
  8
0
100
AcDbPolyline
 90
        4
 70
     0
 43
9.0
 10
1329.690319754845
 20
193.2749941551934
 10
1416.556590045503
 20
186.1743737195848
 10
1465.690319754845
 20
179.1291101519096
 10
1502.690319754845
 20
170.7749941551924
  0
LWPOLYLINE
  5
2B6
330
241
100
AcDbEntity
  8
0
100
AcDbPolyline
 90
        2
 70
     0
 43
9.0
 10
590.6903197548454
 20
193.2749941551936
 10
1165.690319754845
 20
193.2749941551934
  0
LWPOLYLINE
  5
2B7
330
241
100
AcDbEntity
  8
0
100
AcDbPolyline
 90
        5
 70
     0
 43
9.0
 10
1329.690319754845
 20
205.7749941551934
 10
1400.498490926279
 20
215.6564444362963
 10
1442.986567410712
 20
220.6826161924542
 10
1523.212060015542
 20
228.2749941551934
 10
1763.641658063637
 20
228.2749941551933
  0
LWPOLYLINE
  5
2B8
330
241
100
AcDbEntity
  8
0
100
AcDbPolyline
 90
        2
 70
     0
 43
9.0
 10
1763.641658063637
 20
228.2749941551933
 10
2156.215945080403
 20
228.2749941551932
  0
LWPOLYLINE
  5
2B9
330
241
100
AcDbEntity
  8
0
100
AcDbPolyline
 90
        2
 70
     0
 43
9.0
 10
1165.690319754845
 20
123.2749941551934
 10
1329.690319754845
 20
123.2749941551934
  0
LWPOLYLINE
  5
2BA
330
241
100
AcDbEntity
  8
0
100
AcDbPolyline
 90
        2
 70
     0
 43
9.0
 10
1258.799297009624
 20
123.2749941551934
 10
1329.690319754845
 20
110.7749941551934
  0
LWPOLYLINE
  5
2BB
330
241
100
AcDbEntity
  8
0
100
AcDbPolyline
 90
        4
 70
     0
 43
9.0
 10
1329.690319754845
 20
123.2749941551934
 10
1431.382547935183
 20
123.2749941551934
 10
1550.917339358744
 20
129.3126902081809
 10
1666.690319754845
 20
145.7749941551924
  0
LWPOLYLINE
  5
2BC
330
241
100
AcDbEntity
  8
0
100
AcDbPolyline
 90
        2
 70
     0
 43
9.0
 10
590.6903197548454
 20
123.2749941551937
 10
1165.690319754845
 20
123.2749941551934
  0
LWPOLYLINE
  5
2BD
330
241
100
AcDbEntity
  8
0
100
AcDbPolyline
 90
        6
 70
     0
 43
9.0
 10
1329.690319754845
 20
110.7749941551934
 10
1465.690319754845
 20
86.98510240042003
 10
1545.397423814562
 20
79.63911937138039
 10
1665.590845326287
 20
87.10454927894096
 10
1737.258972438869
 20
99.0492371310379
 10
1760.743932815367
 20
102.7671486352924
  0
LWPOLYLINE
  5
2BE
330
241
100
AcDbEntity
  8
0
100
AcDbPolyline
 90
        2
 70
     0
 43
9.0
 10
100.6598929642108
 20
20.10344069754518
 10
108.1949481879697
 20
0.7739639223423751
  0
LWPOLYLINE
  5
2BF
330
241
100
AcDbEntity
  8
0
100
AcDbPolyline
 90
        2
 70
     0
 43
9.0
 10
754.6903197548288
 20
145.7749941551948
 10
882.2941606962345
 20
123.2749941551935
  0
LINE
  5
2C0
330
241
100
AcDbEntity
  8
0
100
AcDbLine
 10
590.6903197548454
 20
358.2749941551933
 30
0.0
 11
-100.0
 21
173.2050807568846
 31
0.0
  0
LINE
  5
2C1
330
241
100
AcDbEntity
  8
0
100
AcDbLine
 10
-100.0
 20
173.2050807568846
 30
0.0
 11
100.0
 21
-173.2050807568846
 31
0.0
  0
LINE
  5
2C2
330
241
100
AcDbEntity
  8
0
100
AcDbLine
 10
100.0
 20
-173.2050807568846
 30
0.0
 11
590.6903197548454
 21
-41.72500584480656
 31
0.0
  0
LINE
  5
2C3
330
241
100
AcDbEntity
  8
0
 62
     2
100
AcDbLine
 10
530.5242878252086
 20
-903.0323917595462
 30
0.0
 11
1832.606087595733
 21
-903.032391759548
 31
0.0
  0
LINE
  5
2C4
330
241
100
AcDbEntity
  8
0
100
AcDbLine
 10
1777.137160482064
 20
102.7082352244925
 30
0.0
 11
1777.137160482065
 21
140.9698736967571
 31
0.0
  0
LINE
  5
2C5
330
241
100
AcDbEntity
  8
0
100
AcDbLine
 10
1777.137160482065
 20
140.9698736967571
 30
0.0
 11
2289.155056107463
 21
140.9698736967571
 31
0.0
  0
LINE
  5
2C6
330
241
100
AcDbEntity
  8
0
100
AcDbLine
 10
2289.155056107463
 20
140.9698736967571
 30
0.0
 11
2289.155056107463
 21
58.60241386732071
 31
0.0
  0
LWPOLYLINE
  5
2C7
330
241
100
AcDbEntity
  8
0
100
AcDbPolyline
 90
        6
 70
     0
 43
9.0
 10
67.26039485085016
 20
74.00026543538695
 42
-0.0237698399588069
 10
229.6947132978522
 20
137.6534057494543
 42
-0.0286617763953856
 10
325.2374472234897
 20
163.9557550368392
 42
-0.0147882602207059
 10
403.9777248285535
 20
178.4270898502271
 42
-0.0183914253610636
 10
505.5900457215727
 20
190.2059258217294
 42
-0.0212917548643425
 10
590.6903197548454
 20
193.2749941551936
  0
LWPOLYLINE
  5
2C8
330
241
100
AcDbEntity
  8
0
100
AcDbPolyline
 90
        6
 70
     0
 43
9.0
 10
590.6903197548454
 20
123.2749941551937
 42
0.0216570161525927
 10
403.9777248285535
 20
108.4270898502295
 42
0.0334076709161107
 10
332.6526476612185
 20
94.750275907493
 42
0.0038413230429266
 10
232.936094969301
 20
67.8038226119213
 42
0.0503203101377424
 10
162.7958337034669
 20
40.42414841044643
 42
0.0009240786459977
 10
104.4274205760865
 20
10.43870230993957
  0
LINE
  5
2C9
330
241
100
AcDbEntity
  8
0
100
AcDbLine
 10
-71.5292004002871
 20
153.1596227910682
 30
0.0
 11
6.143056430330944
 21
24.73123773450175
 31
0.0
  0
LINE
  5
2CA
330
241
100
AcDbEntity
  8
0
100
AcDbLine
 10
-16.15887869925245
 20
173.9234934289561
 30
0.0
 11
56.89918465627932
 21
54.72349532256214
 31
0.0
  0
LINE
  5
2CB
330
241
100
AcDbEntity
  8
0
100
AcDbLine
 10
20.96621662247662
 20
-7.047138959626864
 30
0.0
 11
98.63847345309466
 21
-135.4755240161933
 31
0.0
  0
LINE
  5
2CC
330
241
100
AcDbEntity
  8
0
100
AcDbLine
 10
73.28801635565333
 20
18.99692661458079
 30
0.0
 11
146.3460797111851
 21
-100.2030714918132
 31
0.0
  0
LINE
  5
2CD
330
241
100
AcDbEntity
  8
0
100
AcDbLine
 10
72.66817035830684
 20
8.62414226058496
 30
0.0
 11
87.93911913246495
 21
-16.29161626567276
 31
0.0
  0
LINE
  5
2CE
330
241
100
AcDbEntity
  8
0
100
AcDbLine
 10
72.40370601677688
 20
14.96974503316494
 30
0.0
 11
72.93263469983685
 21
2.278539488004924
 31
0.0
  0
LINE
  5
2CF
330
241
100
AcDbEntity
  8
0
100
AcDbLine
 10
67.1337970896372
 20
11.73980085201475
 30
0.0
 11
78.20254362697654
 21
5.508483669155112
 31
0.0
  0
LINE
  5
2D0
330
241
100
AcDbEntity
  8
0
100
AcDbLine
 10
9.945369351007116
 20
35.00541679888164
 30
0.0
 11
-6.131841262494504
 21
59.408699329944
 31
0.0
  0
LINE
  5
2D1
330
241
100
AcDbEntity
  8
0
100
AcDbLine
 10
15.57862686922988
 20
32.07232531229243
 30
0.0
 11
4.312111832784353
 21
37.93850828547096
 31
0.0
  0
LINE
  5
2D2
330
241
100
AcDbEntity
  8
0
100
AcDbLine
 10
10.41711126349674
 20
28.67184943890862
 30
0.0
 11
9.473627438517497
 21
41.33898415885477
 31
0.0
  0
MTEXT
  5
2D3
330
241
100
AcDbEntity
  8
0
100
AcDbMText
 10
776.0572601837894
 20
30.81942525471658
 30
0.0
 40
30.0
 41
309.756785156047
 71
     1
 72
     5
  1
{NRE-220}
 73
     1
 44
1.0
1001
ACAD
1000
ACAD_MTEXT_DEFINED_HEIGHT_BEGIN
1070
    46
1040
30.0
1000
ACAD_MTEXT_DEFINED_HEIGHT_END
  0
MTEXT
  5
2D4
330
241
100
AcDbEntity
  8
0
100
AcDbMText
 10
805.9385705588318
 20
315.8074817281121
 30
0.0
 40
60.0
 41
414.1899862913415
 71
     1
 72
     5
  1
{2350}
 73
     1
 44
1.0
1001
ACAD
1000
ACAD_MTEXT_DEFINED_HEIGHT_BEGIN
1070
    46
1040
60.0
1000
ACAD_MTEXT_DEFINED_HEIGHT_END
  0
MTEXT
  5
2D5
330
241
100
AcDbEntity
  8
0
100
AcDbMText
 10
1231.212653838493
 20
32.32926316618114
 30
0.0
 40
30.0
 41
309.756785156047
 71
     1
 72
     5
  1
{JeWun}
 73
     1
 44
1.0
1001
ACAD
1000
ACAD_MTEXT_DEFINED_HEIGHT_BEGIN
1070
    46
1040
30.0
1000
ACAD_MTEXT_DEFINED_HEIGHT_END
  0
TEXT
  5
2D6
330
241
100
AcDbEntity
  8
0
 62
     2
100
AcDbText
 10
616.416979128956
 20
319.1264757202872
 30
0.0
 40
20.0
  1
DL 12/18
100
AcDbText
  0
ENDBLK
  5
248
330
241
100
AcDbEntity
  8
0
100
AcDbBlockEnd
  0
ENDSEC
  0
SECTION
  2
ENTITIES
  0
INSERT
  5
2D7
330
1F
100
AcDbEntity
  8
0
100
AcDbBlockReference
  2
NRE-220
 10
0.0
 20
0.0
 30
0.0
  0
ENDSEC
  0
SECTION
  2
OBJECTS
  0
DICTIONARY
  5
C
330
0
100
AcDbDictionary
281
     1
  3
ACAD_DETAILVIEWSTYLE
350
114
  3
ACAD_GROUP
350
D
  3
ACAD_LAYOUT
350
1A
  3
ACAD_MLINESTYLE
350
17
  3
ACAD_PLOTSETTINGS
350
19
  3
ACAD_PLOTSTYLENAME
350
E
  3
ACAD_SCALELIST
350
B5
  3
ACAD_SECTIONVIEWSTYLE
350
115
  3
AcDbVariableDictionary
350
59
  3
APPDATA
350
DC
  3
DWGPROPS
350
2D9
  0
DICTIONARY
  5
114
102
{ACAD_REACTORS
330
C
102
}
330
C
100
AcDbDictionary
281
     1
  0
DICTIONARY
  5
D
102
{ACAD_REACTORS
330
C
102
}
330
C
100
AcDbDictionary
281
     1
  0
DICTIONARY
  5
1A
102
{ACAD_REACTORS
330
C
102
}
330
C
100
AcDbDictionary
281
     1
  3
Layout1
350
74
  3
Layout2
350
28
  3
Model
350
22
  0
DICTIONARY
  5
17
102
{ACAD_REACTORS
330
C
102
}
330
C
100
AcDbDictionary
281
     1
  3
Standard
350
18
  0
DICTIONARY
  5
19
102
{ACAD_REACTORS
330
C
102
}
330
C
100
AcDbDictionary
281
     1
  0
ACDBDICTIONARYWDFLT
  5
E
102
{ACAD_REACTORS
330
C
102
}
330
C
100
AcDbDictionary
281
     1
  3
Normal
350
F
100
AcDbDictionaryWithDefault
340
F
  0
DICTIONARY
  5
B5
102
{ACAD_REACTORS
330
C
102
}
330
C
100
AcDbDictionary
281
     1
  3
A0
350
B6
  3
A1
350
B7
  3
A2
350
B8
  3
A3
350
B9
  3
A4
350
BA
  3
A5
350
BB
  3
A6
350
BC
  3
A7
350
BD
  3
A8
350
BE
  3
A9
350
BF
  3
B0
350
C0
  3
B1
350
C1
  3
B2
350
C2
  3
B3
350
C3
  3
B4
350
C4
  3
B5
350
C5
  3
B6
350
C6
  3
B7
350
C7
  3
B8
350
C8
  3
B9
350
C9
  3
C0
350
CA
  3
C1
350
CB
  3
C2
350
CC
  3
C3
350
CD
  3
C4
350
CE
  3
C5
350
CF
  3
C6
350
D0
  3
C7
350
D1
  3
C8
350
D2
  3
C9
350
D3
  3
D0
350
D4
  3
D1
350
D5
  3
D2
350
D6
  0
DICTIONARY
  5
115
102
{ACAD_REACTORS
330
C
102
}
330
C
100
AcDbDictionary
281
     1
  0
DICTIONARY
  5
59
102
{ACAD_REACTORS
330
C
102
}
330
C
100
AcDbDictionary
281
     1
  3
DIMASSOC
350
1D2
  3
HIDETEXT
350
30
  0
DICTIONARY
  5
DC
102
{ACAD_REACTORS
330
C
102
}
330
C
100
AcDbDictionary
281
     1
  0
XRECORD
  5
2D9
102
{ACAD_REACTORS
330
C
102
}
330
C
100
AcDbXrecord
280
     1
  1
DWGPROPS COOKIE
  2

  3

  4

  6

  7

  8
Melchor
  9

300
=
301
=
302
=
303
=
304
=
305
=
306
=
307
=
308
=
309
=
 40
0.0
 41
2453353.717125822
 42
2458478.657938264
  1

 90
        0
  0
LAYOUT
  5
74
102
{ACAD_REACTORS
330
1A
102
}
330
1A
100
AcDbPlotSettings
  1

  2
HP C LaserJet 4500-PS
  4
HP C LaserJet 4500-PS
  6

 40
0.0
 41
0.0
 42
0.0
 43
0.0
 44
0.0
 45
0.0
 46
0.0
 47
0.0
 48
0.0
 49
0.0
140
0.0
141
0.0
142
1.0
143
1.0
 70
   688
 72
     0
 73
     0
 74
     5
  7

 75
    16
147
1.0
148
0.0
149
0.0
100
AcDbLayout
  1
Layout1
 70
     1
 71
     1
 10
0.0
 20
0.0
 11
420.0
 21
297.0
 12
0.0
 22
0.0
 32
0.0
 14
1.000000000000000E+20
 24
1.000000000000000E+20
 34
1.000000000000000E+20
 15
-1.000000000000000E+20
 25
-1.000000000000000E+20
 35
-1.000000000000000E+20
146
0.0
 13
0.0
 23
0.0
 33
0.0
 16
1.0
 26
0.0
 36
0.0
 17
0.0
 27
1.0
 37
0.0
 76
     0
330
73
  0
LAYOUT
  5
28
102
{ACAD_REACTORS
330
1A
102
}
330
1A
100
AcDbPlotSettings
  1

  2
HP C LaserJet 4500-PS
  4
HP C LaserJet 4500-PS
  6

 40
0.0
 41
0.0
 42
0.0
 43
0.0
 44
0.0
 45
0.0
 46
0.0
 47
0.0
 48
0.0
 49
0.0
140
0.0
141
0.0
142
1.0
143
1.0
 70
   688
 72
     0
 73
     0
 74
     5
  7

 75
    16
147
1.0
148
0.0
149
0.0
100
AcDbLayout
  1
Layout2
 70
     1
 71
     2
 10
0.0
 20
0.0
 11
12.0
 21
9.0
 12
0.0
 22
0.0
 32
0.0
 14
0.0
 24
0.0
 34
0.0
 15
0.0
 25
0.0
 35
0.0
146
0.0
 13
0.0
 23
0.0
 33
0.0
 16
1.0
 26
0.0
 36
0.0
 17
0.0
 27
1.0
 37
0.0
 76
     0
330
25
  0
LAYOUT
  5
22
102
{ACAD_REACTORS
330
1A
102
}
330
1A
100
AcDbPlotSettings
  1

  2
HP C LaserJet 4500-PS
  4
HP C LaserJet 4500-PS
  6

 40
0.0
 41
0.0
 42
0.0
 43
0.0
 44
0.0
 45
0.0
 46
0.0
 47
0.0
 48
0.0
 49
0.0
140
0.0
141
0.0
142
1.0
143
1.0
 70
 11952
 72
     0
 73
     0
 74
     0
  7

 75
     0
147
1.0
148
0.0
149
0.0
100
AcDbLayout
  1
Model
 70
     1
 71
     0
 10
0.0
 20
0.0
 11
420.0
 21
297.0
 12
0.0
 22
0.0
 32
0.0
 14
-100.0
 24
-903.032391759548
 34
0.0
 15
2340.690319754845
 25
358.2749941551933
 35
0.0
146
0.0
 13
0.0
 23
0.0
 33
0.0
 16
1.0
 26
0.0
 36
0.0
 17
0.0
 27
1.0
 37
0.0
 76
     0
330
1F
331
97
  0
MLINESTYLE
  5
18
102
{ACAD_REACTORS
330
17
102
}
330
17
100
AcDbMlineStyle
  2
Standard
 70
     0
  3

 62
   256
 51
90.0
 52
90.0
 71
     2
 49
0.5
 62
   256
  6
BYLAYER
 49
-0.5
 62
   256
  6
BYLAYER
  0
ACDBPLACEHOLDER
  5
F
102
{ACAD_REACTORS
330
E
102
}
330
E
  0
SCALE
  5
B6
102
{ACAD_REACTORS
330
B5
102
}
330
B5
100
AcDbScale
 70
     0
300
1:1
140
1.0
141
1.0
290
     1
  0
SCALE
  5
B7
102
{ACAD_REACTORS
330
B5
102
}
330
B5
100
AcDbScale
 70
     0
300
1:2
140
1.0
141
2.0
290
     0
  0
SCALE
  5
B8
102
{ACAD_REACTORS
330
B5
102
}
330
B5
100
AcDbScale
 70
     0
300
1:4
140
1.0
141
4.0
290
     0
  0
SCALE
  5
B9
102
{ACAD_REACTORS
330
B5
102
}
330
B5
100
AcDbScale
 70
     0
300
1:5
140
1.0
141
5.0
290
     0
  0
SCALE
  5
BA
102
{ACAD_REACTORS
330
B5
102
}
330
B5
100
AcDbScale
 70
     0
300
1:8
140
1.0
141
8.0
290
     0
  0
SCALE
  5
BB
102
{ACAD_REACTORS
330
B5
102
}
330
B5
100
AcDbScale
 70
     0
300
1:10
140
1.0
141
10.0
290
     0
  0
SCALE
  5
BC
102
{ACAD_REACTORS
330
B5
102
}
330
B5
100
AcDbScale
 70
     0
300
1:16
140
1.0
141
16.0
290
     0
  0
SCALE
  5
BD
102
{ACAD_REACTORS
330
B5
102
}
330
B5
100
AcDbScale
 70
     0
300
1:20
140
1.0
141
20.0
290
     0
  0
SCALE
  5
BE
102
{ACAD_REACTORS
330
B5
102
}
330
B5
100
AcDbScale
 70
     0
300
1:30
140
1.0
141
30.0
290
     0
  0
SCALE
  5
BF
102
{ACAD_REACTORS
330
B5
102
}
330
B5
100
AcDbScale
 70
     0
300
1:40
140
1.0
141
40.0
290
     0
  0
SCALE
  5
C0
102
{ACAD_REACTORS
330
B5
102
}
330
B5
100
AcDbScale
 70
     0
300
1:50
140
1.0
141
50.0
290
     0
  0
SCALE
  5
C1
102
{ACAD_REACTORS
330
B5
102
}
330
B5
100
AcDbScale
 70
     0
300
1:100
140
1.0
141
100.0
290
     0
  0
SCALE
  5
C2
102
{ACAD_REACTORS
330
B5
102
}
330
B5
100
AcDbScale
 70
     0
300
2:1
140
2.0
141
1.0
290
     0
  0
SCALE
  5
C3
102
{ACAD_REACTORS
330
B5
102
}
330
B5
100
AcDbScale
 70
     0
300
4:1
140
4.0
141
1.0
290
     0
  0
SCALE
  5
C4
102
{ACAD_REACTORS
330
B5
102
}
330
B5
100
AcDbScale
 70
     0
300
8:1
140
8.0
141
1.0
290
     0
  0
SCALE
  5
C5
102
{ACAD_REACTORS
330
B5
102
}
330
B5
100
AcDbScale
 70
     0
300
10:1
140
10.0
141
1.0
290
     0
  0
SCALE
  5
C6
102
{ACAD_REACTORS
330
B5
102
}
330
B5
100
AcDbScale
 70
     0
300
100:1
140
100.0
141
1.0
290
     0
  0
SCALE
  5
C7
102
{ACAD_REACTORS
330
B5
102
}
330
B5
100
AcDbScale
 70
     0
300
1/128" = 1'-0"
140
0.0078125
141
12.0
290
     0
  0
SCALE
  5
C8
102
{ACAD_REACTORS
330
B5
102
}
330
B5
100
AcDbScale
 70
     0
300
1/64" = 1'-0"
140
0.015625
141
12.0
290
     0
  0
SCALE
  5
C9
102
{ACAD_REACTORS
330
B5
102
}
330
B5
100
AcDbScale
 70
     0
300
1/32" = 1'-0"
140
0.03125
141
12.0
290
     0
  0
SCALE
  5
CA
102
{ACAD_REACTORS
330
B5
102
}
330
B5
100
AcDbScale
 70
     0
300
1/16" = 1'-0"
140
0.0625
141
12.0
290
     0
  0
SCALE
  5
CB
102
{ACAD_REACTORS
330
B5
102
}
330
B5
100
AcDbScale
 70
     0
300
3/32" = 1'-0"
140
0.09375
141
12.0
290
     0
  0
SCALE
  5
CC
102
{ACAD_REACTORS
330
B5
102
}
330
B5
100
AcDbScale
 70
     0
300
1/8" = 1'-0"
140
0.125
141
12.0
290
     0
  0
SCALE
  5
CD
102
{ACAD_REACTORS
330
B5
102
}
330
B5
100
AcDbScale
 70
     0
300
3/16" = 1'-0"
140
0.1875
141
12.0
290
     0
  0
SCALE
  5
CE
102
{ACAD_REACTORS
330
B5
102
}
330
B5
100
AcDbScale
 70
     0
300
1/4" = 1'-0"
140
0.25
141
12.0
290
     0
  0
SCALE
  5
CF
102
{ACAD_REACTORS
330
B5
102
}
330
B5
100
AcDbScale
 70
     0
300
3/8" = 1'-0"
140
0.375
141
12.0
290
     0
  0
SCALE
  5
D0
102
{ACAD_REACTORS
330
B5
102
}
330
B5
100
AcDbScale
 70
     0
300
1/2" = 1'-0"
140
0.5
141
12.0
290
     0
  0
SCALE
  5
D1
102
{ACAD_REACTORS
330
B5
102
}
330
B5
100
AcDbScale
 70
     0
300
3/4" = 1'-0"
140
0.75
141
12.0
290
     0
  0
SCALE
  5
D2
102
{ACAD_REACTORS
330
B5
102
}
330
B5
100
AcDbScale
 70
     0
300
1" = 1'-0"
140
1.0
141
12.0
290
     0
  0
SCALE
  5
D3
102
{ACAD_REACTORS
330
B5
102
}
330
B5
100
AcDbScale
 70
     0
300
1-1/2" = 1'-0"
140
1.5
141
12.0
290
     0
  0
SCALE
  5
D4
102
{ACAD_REACTORS
330
B5
102
}
330
B5
100
AcDbScale
 70
     0
300
3" = 1'-0"
140
3.0
141
12.0
290
     0
  0
SCALE
  5
D5
102
{ACAD_REACTORS
330
B5
102
}
330
B5
100
AcDbScale
 70
     0
300
6" = 1'-0"
140
6.0
141
12.0
290
     0
  0
SCALE
  5
D6
102
{ACAD_REACTORS
330
B5
102
}
330
B5
100
AcDbScale
 70
     0
300
1'-0" = 1'-0"
140
12.0
141
12.0
290
     0
  0
DICTIONARYVAR
  5
1D2
102
{ACAD_REACTORS
330
59
102
}
330
59
100
DictionaryVariables
280
     0
  1
2
  0
DICTIONARYVAR
  5
30
102
{ACAD_REACTORS
330
59
102
}
330
59
100
DictionaryVariables
280
     0
  1
2
  0
ENDSEC
  0
EOF
