  0
SECTION
  2
HEADER
  9
$ACADVER
  1
AC1009
  9
$DWGCODEPAGE
  3
ansi_1252
  9
$INSBASE
 10
0.0
 20
0.0
 30
0.0
  9
$EXTMIN
 10
-4290.315385379826
 20
790.6212240003426
 30
0.0
  9
$EXTMAX
 10
3380.784932687511
 20
2256.472532348805
 30
0.0
  9
$LIMMIN
 10
0.0
 20
0.0
  9
$LIMMAX
 10
12.0
 20
9.0
  9
$ORTHOMODE
 70
     0
  9
$REGENMODE
 70
     1
  9
$FILLMODE
 70
     1
  9
$QTEXTMODE
 70
     0
  9
$MIRRTEXT
 70
     1
  9
$DRAGMODE
 70
     2
  9
$LTSCALE
 40
1.0
  9
$OSMODE
 70
    37
  9
$ATTMODE
 70
     1
  9
$TEXTSIZE
 40
0.2
  9
$TRACEWID
 40
0.05
  9
$TEXTSTYLE
  7
STANDARD
  9
$CLAYER
  8
0
  9
$CELTYPE
  6
BYLAYER
  9
$CECOLOR
 62
   256
  9
$DIMSCALE
 40
1.0
  9
$DIMASZ
 40
2.5
  9
$DIMEXO
 40
0.625
  9
$DIMDLI
 40
5.0
  9
$DIMRND
 40
0.0
  9
$DIMDLE
 40
0.0
  9
$DIMEXE
 40
1.25
  9
$DIMTP
 40
0.0
  9
$DIMTM
 40
0.0
  9
$DIMTXT
 40
2.5
  9
$DIMCEN
 40
0.09
  9
$DIMTSZ
 40
0.0
  9
$DIMTOL
 70
     0
  9
$DIMLIM
 70
     0
  9
$DIMTIH
 70
     1
  9
$DIMTOH
 70
     1
  9
$DIMSE1
 70
     0
  9
$DIMSE2
 70
     0
  9
$DIMTAD
 70
     0
  9
$DIMZIN
 70
     8
  9
$DIMBLK
  1

  9
$DIMASO
 70
     1
  9
$DIMSHO
 70
     1
  9
$DIMPOST
  1

  9
$DIMAPOST
  1

  9
$DIMALT
 70
     0
  9
$DIMALTD
 70
     2
  9
$DIMALTF
 40
25.4
  9
$DIMLFAC
 40
1.0
  9
$DIMTOFL
 70
     0
  9
$DIMTVP
 40
0.0
  9
$DIMTIX
 70
     0
  9
$DIMSOXD
 70
     0
  9
$DIMSAH
 70
     0
  9
$DIMBLK1
  1

  9
$DIMBLK2
  1

  9
$DIMSTYLE
  2
STANDARD
  9
$DIMCLRD
 70
     0
  9
$DIMCLRE
 70
     0
  9
$DIMCLRT
 70
     0
  9
$DIMTFAC
 40
1.0
  9
$DIMGAP
 40
0.625
  9
$LUNITS
 70
     2
  9
$LUPREC
 70
     4
  9
$SKETCHINC
 40
0.1
  9
$FILLETRAD
 40
0.5
  9
$AUNITS
 70
     0
  9
$AUPREC
 70
     0
  9
$MENU
  1
.
  9
$ELEVATION
 40
0.0
  9
$PELEVATION
 40
0.0
  9
$THICKNESS
 40
0.0
  9
$LIMCHECK
 70
     0
  9
$CHAMFERA
 40
0.0
  9
$CHAMFERB
 40
0.0
  9
$SKPOLY
 70
     0
  9
$TDCREATE
 40
2453353.800459155
  9
$TDUPDATE
 40
2459667.150392592
  9
$TDINDWG
 40
4895786.051922963
  9
$TDUSRTIMER
 40
4895786.051922963
  9
$USRTIMER
 70
     1
  9
$ANGBASE
 50
0.0
  9
$ANGDIR
 70
     0
  9
$PDMODE
 70
     0
  9
$PDSIZE
 40
0.0
  9
$PLINEWID
 40
0.0
  9
$COORDS
 70
     1
  9
$SPLFRAME
 70
     0
  9
$SPLINETYPE
 70
     6
  9
$SPLINESEGS
 70
     8
  9
$ATTDIA
 70
     0
  9
$ATTREQ
 70
     1
  9
$HANDLING
 70
     1
  9
$HANDSEED
  5
621
  9
$SURFTAB1
 70
     6
  9
$SURFTAB2
 70
     6
  9
$SURFTYPE
 70
     6
  9
$SURFU
 70
     6
  9
$SURFV
 70
     6
  9
$UCSNAME
  2

  9
$UCSORG
 10
0.0
 20
0.0
 30
0.0
  9
$UCSXDIR
 10
1.0
 20
0.0
 30
0.0
  9
$UCSYDIR
 10
0.0
 20
1.0
 30
0.0
  9
$PUCSNAME
  2

  9
$PUCSORG
 10
0.0
 20
0.0
 30
0.0
  9
$PUCSXDIR
 10
1.0
 20
0.0
 30
0.0
  9
$PUCSYDIR
 10
0.0
 20
1.0
 30
0.0
  9
$USERI1
 70
     0
  9
$USERI2
 70
     0
  9
$USERI3
 70
     0
  9
$USERI4
 70
     0
  9
$USERI5
 70
     0
  9
$USERR1
 40
0.0
  9
$USERR2
 40
0.0
  9
$USERR3
 40
0.0
  9
$USERR4
 40
0.0
  9
$USERR5
 40
0.0
  9
$WORLDVIEW
 70
     1
  9
$SHADEDGE
 70
     3
  9
$SHADEDIF
 70
    70
  9
$TILEMODE
 70
     1
  9
$MAXACTVP
 70
    64
  9
$PLIMCHECK
 70
     0
  9
$PEXTMIN
 10
0.0
 20
0.0
 30
0.0
  9
$PEXTMAX
 10
0.0
 20
0.0
 30
0.0
  9
$PLIMMIN
 10
-20.0
 20
-7.5
  9
$PLIMMAX
 10
277.0
 20
202.5
  9
$UNITMODE
 70
     0
  9
$VISRETAIN
 70
     1
  9
$PLINEGEN
 70
     0
  9
$PSLTSCALE
 70
     1
  0
ENDSEC
  0
SECTION
  2
TABLES
  0
TABLE
  2
VPORT
 70
     1
  0
VPORT
  2
*ACTIVE
 70
     0
 10
0.0
 20
0.0
 11
1.0
 21
1.0
 12
174.2185658669326
 22
1381.016211321067
 13
0.0
 23
0.0
 14
0.5
 24
0.5
 15
0.5
 25
0.5
 16
0.0
 26
0.0
 36
1.0
 17
0.0
 27
0.0
 37
0.0
 40
4573.144026932923
 41
2.218289085545723
 42
50.0
 43
0.0
 44
0.0
 50
0.0
 51
0.0
 71
    16
 72
   100
 73
     1
 74
     3
 75
     0
 76
     0
 77
     0
 78
     0
  0
ENDTAB
  0
TABLE
  2
LTYPE
 70
    48
  0
LTYPE
  2
CONTINUOUS
 70
     0
  3
Solid line
 72
    65
 73
     0
 40
0.0
  0
LTYPE
  2
HIDDENX2
 70
     0
  3
Hidden (2x) ____ ____ ____ ____ ____ ____ ____ 
 72
    65
 73
     2
 40
19.05
 49
12.7
 49
-6.35
  0
LTYPE
  2
HOT_WATER_SUPPLY
 70
     0
  3
Hot water supply ---- HW ---- HW ---- HW ----
 72
    65
 73
     3
 40
22.86
 49
12.7
 49
-5.08
 49
-5.08
  0
LTYPE
  2
PHANTOM
 70
     0
  3
Phantom ______  __  __  ______  __  __  ______ 
 72
    65
 73
     6
 40
63.50000000000001
 49
31.75
 49
-6.35
 49
6.35
 49
-6.35
 49
6.35
 49
-6.35
  0
LTYPE
  2
PHANTOM2
 70
     0
  3
Phantom (.5x) ___ _ _ ___ _ _ ___ _ _ ___ _ _
 72
    65
 73
     6
 40
31.75
 49
15.875
 49
-3.175
 49
3.175
 49
-3.175
 49
3.175
 49
-3.175
  0
LTYPE
  2
PHANTOMX2
 70
     0
  3
Phantom (2x) ____________    ____    ____   _
 72
    65
 73
     6
 40
127.0
 49
63.5
 49
-12.7
 49
12.7
 49
-12.7
 49
12.7
 49
-12.7
  0
LTYPE
  2
TRACKS
 70
     0
  3
Tracks -|-|-|-|-|-|-|-|-|-|-|-|-|-|-|-|-|-|-|-|-|-|-|-|-
 72
    65
 73
     2
 40
7.62
 49
3.81
 49
3.81
  0
LTYPE
  2
ZIGZAG
 70
     0
  3
Zig zag /\/\/\/\/\/\/\/\/\/\/\/\/\/\/\/\/\/\/\/\/\/\/\/
 72
    65
 73
     4
 40
20.32254
 49
0.00254
 49
-5.08
 49
-10.16
 49
-5.08
  0
LTYPE
  2
DASHED
 70
     0
  3
Dashed __ __ __ __ __ __ __ __ __ __ __ __ __ _
 72
    65
 73
     2
 40
19.05
 49
12.7
 49
-6.35
  0
LTYPE
  2
DASHED2
 70
     0
  3
Dashed (.5x) _ _ _ _ _ _ _ _ _ _ _ _ _ _ _ _ _ 
 72
    65
 73
     2
 40
9.524999999999999
 49
6.35
 49
-3.175
  0
LTYPE
  2
DASHEDX2
 70
     0
  3
Dashed (2x) ____  ____  ____  ____  ____  ___
 72
    65
 73
     2
 40
38.09999999999999
 49
25.4
 49
-12.7
  0
LTYPE
  2
DIVIDE
 70
     0
  3
Divide ____ . . ____ . . ____ . . ____ . . ____
 72
    65
 73
     6
 40
31.75
 49
12.7
 49
-6.35
 49
0.0
 49
-6.35
 49
0.0
 49
-6.35
  0
LTYPE
  2
DIVIDE2
 70
     0
  3
Divide (.5x) __..__..__..__..__..__..__..__.._
 72
    65
 73
     6
 40
15.875
 49
6.35
 49
-3.175
 49
0.0
 49
-3.175
 49
0.0
 49
-3.175
  0
LTYPE
  2
DIVIDEX2
 70
     0
  3
Divide (2x) ________  .  .  ________  .  .  _
 72
    65
 73
     6
 40
63.5
 49
25.4
 49
-12.7
 49
0.0
 49
-12.7
 49
0.0
 49
-12.7
  0
LTYPE
  2
DOT
 70
     0
  3
Dot . . . . . . . . . . . . . . . . . . . . . . . .
 72
    65
 73
     2
 40
6.35
 49
0.0
 49
-6.35
  0
LTYPE
  2
DOT2
 70
     0
  3
Dot (.5x) ........................................
 72
    65
 73
     2
 40
3.175
 49
0.0
 49
-3.175
  0
LTYPE
  2
DOTX2
 70
     0
  3
Dot (2x) .  .  .  .  .  .  .  .  .  .  .  .  .  .
 72
    65
 73
     2
 40
12.7
 49
0.0
 49
-12.7
  0
LTYPE
  2
DRAINAGE
 70
     0
  3
Drainage ---->---->---->----
 72
    65
 73
     2
 40
10.16
 49
5.08
 49
5.08
  0
LTYPE
  2
DRAINAGE2
 70
     0
  3
Drainage reversed----<----<----<----
 72
    65
 73
     2
 40
10.16
 49
5.08
 49
5.08
  0
LTYPE
  2
FENCELINE1
 70
     0
  3
Fenceline circle ----0-----0----0-----0----0-----0--
 72
    65
 73
     4
 40
36.83
 49
6.35
 49
-2.54
 49
-2.54
 49
25.4
  0
LTYPE
  2
FENCELINE2
 70
     0
  3
Fenceline square ----[]-----[]----[]-----[]----[]---
 72
    65
 73
     4
 40
36.83
 49
6.35
 49
-2.54
 49
-2.54
 49
25.4
  0
LTYPE
  2
GAS_LINE
 70
     0
  3
Gas line ----GAS----GAS----GAS----GAS----GAS----GAS--
 72
    65
 73
     3
 40
24.13
 49
12.7
 49
-5.08
 49
-6.35
  0
LTYPE
  2
HIDDEN
 70
     0
  3
Hidden __ __ __ __ __ __ __ __ __ __ __ __ __ __
 72
    65
 73
     2
 40
9.524999999999999
 49
6.35
 49
-3.175
  0
LTYPE
  2
HIDDEN2
 70
     0
  3
Hidden (.5x) _ _ _ _ _ _ _ _ _ _ _ _ _ _ _ _ _ 
 72
    65
 73
     2
 40
4.762499999999999
 49
3.175
 49
-1.5875
  0
LTYPE
  2
ACAD_ISO10W100
 70
     0
  3
ISO dash dot __ . __ . __ . __ . __ . __ . __ . 
 72
    65
 73
     4
 40
18.0
 49
12.0
 49
-3.0
 49
0.0
 49
-3.0
  0
LTYPE
  2
ACAD_ISO11W100
 70
     0
  3
ISO double-dash dot __ __ . __ __ . __ __ . __ _
 72
    65
 73
     6
 40
33.0
 49
12.0
 49
-3.0
 49
12.0
 49
-3.0
 49
0.0
 49
-3.0
  0
LTYPE
  2
ACAD_ISO12W100
 70
     0
  3
ISO dash double-dot __ . . __ . . __ . . __ . . 
 72
    65
 73
     6
 40
21.0
 49
12.0
 49
-3.0
 49
0.0
 49
-3.0
 49
0.0
 49
-3.0
  0
LTYPE
  2
ACAD_ISO13W100
 70
     0
  3
ISO double-dash double-dot __ __ . . __ __ . . _
 72
    65
 73
     8
 40
36.0
 49
12.0
 49
-3.0
 49
12.0
 49
-3.0
 49
0.0
 49
-3.0
 49
0.0
 49
-3.0
  0
LTYPE
  2
ACAD_ISO14W100
 70
     0
  3
ISO dash triple-dot __ . . . __ . . . __ . . . _
 72
    65
 73
     8
 40
24.0
 49
12.0
 49
-3.0
 49
0.0
 49
-3.0
 49
0.0
 49
-3.0
 49
0.0
 49
-3.0
  0
LTYPE
  2
ACAD_ISO15W100
 70
     0
  3
ISO double-dash triple-dot __ __ . . . __ __ . .
 72
    65
 73
    10
 40
39.0
 49
12.0
 49
-3.0
 49
12.0
 49
-3.0
 49
0.0
 49
-3.0
 49
0.0
 49
-3.0
 49
0.0
 49
-3.0
  0
LTYPE
  2
BATTING
 70
     0
  3
Batting SSSSSSSSSSSSSSSSSSSSSSSSSSSSSSSSSSSSSSSSSSSSSSS
 72
    65
 73
     4
 40
10.16254
 49
0.00254
 49
-2.54
 49
-5.08
 49
-2.54
  0
LTYPE
  2
BORDER
 70
     0
  3
Border __ __ . __ __ . __ __ . __ __ . __ __ .
 72
    65
 73
     6
 40
44.45
 49
12.7
 49
-6.35
 49
12.7
 49
-6.35
 49
0.0
 49
-6.35
  0
LTYPE
  2
BORDER2
 70
     0
  3
Border (.5x) __.__.__.__.__.__.__.__.__.__.__.
 72
    65
 73
     6
 40
22.225
 49
6.35
 49
-3.175
 49
6.35
 49
-3.175
 49
0.0
 49
-3.175
  0
LTYPE
  2
BORDERX2
 70
     0
  3
Border (2x) ____  ____  .  ____  ____  .  ___
 72
    65
 73
     6
 40
88.89999999999999
 49
25.4
 49
-12.7
 49
25.4
 49
-12.7
 49
0.0
 49
-12.7
  0
LTYPE
  2
CENTER
 70
     0
  3
Center ____ _ ____ _ ____ _ ____ _ ____ _ ____
 72
    65
 73
     4
 40
50.8
 49
31.75
 49
-6.35
 49
6.35
 49
-6.35
  0
LTYPE
  2
CENTER2
 70
     0
  3
Center (.5x) ___ _ ___ _ ___ _ ___ _ ___ _ ___
 72
    65
 73
     4
 40
28.575
 49
19.05
 49
-3.175
 49
3.175
 49
-3.175
  0
LTYPE
  2
CENTERX2
 70
     0
  3
Center (2x) ________  __  ________  __  _____
 72
    65
 73
     4
 40
101.6
 49
63.5
 49
-12.7
 49
12.7
 49
-12.7
  0
LTYPE
  2
DASHDOT
 70
     0
  3
Dash dot __ . __ . __ . __ . __ . __ . __ . __
 72
    65
 73
     4
 40
25.4
 49
12.7
 49
-6.35
 49
0.0
 49
-6.35
  0
LTYPE
  2
DASHDOT2
 70
     0
  3
Dash dot (.5x) _._._._._._._._._._._._._._._.
 72
    65
 73
     4
 40
12.7
 49
6.35
 49
-3.175
 49
0.0
 49
-3.175
  0
LTYPE
  2
DASHDOTX2
 70
     0
  3
Dash dot (2x) ____  .  ____  .  ____  .  ___
 72
    65
 73
     4
 40
50.8
 49
25.4
 49
-12.7
 49
0.0
 49
-12.7
  0
LTYPE
  2
ACAD_ISO02W100
 70
     0
  3
ISO dash __ __ __ __ __ __ __ __ __ __ __ __ __
 72
    65
 73
     2
 40
15.0
 49
12.0
 49
-3.0
  0
LTYPE
  2
ACAD_ISO03W100
 70
     0
  3
ISO dash space __    __    __    __    __    __
 72
    65
 73
     2
 40
30.0
 49
12.0
 49
-18.0
  0
LTYPE
  2
ACAD_ISO04W100
 70
     0
  3
ISO long-dash dot ____ . ____ . ____ . ____ . _
 72
    65
 73
     4
 40
30.0
 49
24.0
 49
-3.0
 49
0.0
 49
-3.0
  0
LTYPE
  2
ACAD_ISO05W100
 70
     0
  3
ISO long-dash double-dot ____ .. ____ .. ____ . 
 72
    65
 73
     6
 40
33.0
 49
24.0
 49
-3.0
 49
0.0
 49
-3.0
 49
0.0
 49
-3.0
  0
LTYPE
  2
ACAD_ISO06W100
 70
     0
  3
ISO long-dash triple-dot ____ ... ____ ... ____
 72
    65
 73
     8
 40
36.0
 49
24.0
 49
-3.0
 49
0.0
 49
-3.0
 49
0.0
 49
-3.0
 49
0.0
 49
-3.0
  0
LTYPE
  2
ACAD_ISO07W100
 70
     0
  3
ISO dot . . . . . . . . . . . . . . . . . . . . 
 72
    65
 73
     2
 40
3.0
 49
0.0
 49
-3.0
  0
LTYPE
  2
ACAD_ISO08W100
 70
     0
  3
ISO long-dash short-dash ____ __ ____ __ ____ _
 72
    65
 73
     4
 40
36.0
 49
24.0
 49
-3.0
 49
6.0
 49
-3.0
  0
LTYPE
  2
ACAD_ISO09W100
 70
     0
  3
ISO long-dash double-short-dash ____ __ __ ____
 72
    65
 73
     6
 40
45.0
 49
24.0
 49
-3.0
 49
6.0
 49
-3.0
 49
6.0
 49
-3.0
  0
ENDTAB
  0
TABLE
  2
LAYER
 70
     1
  0
LAYER
  2
0
 70
     0
 62
     7
  6
CONTINUOUS
  0
ENDTAB
  0
TABLE
  2
STYLE
 70
    25
  0
STYLE
  2
STANDARD
 70
     0
 40
0.0
 41
1.0
 50
0.0
 71
     0
 42
0.2
  3
txt
  4

  0
STYLE
  2
TEXTSTYLE0
 70
     0
 40
0.0
 41
1.0
 50
0.0
 71
     0
 42
0.2
  3
STANDARD
  4

  0
STYLE
  2
TEXTSTYLE1
 70
     0
 40
0.0
 41
1.0
 50
0.0
 71
     0
 42
0.2
  3
ltypeshp.shx
  4

  0
STYLE
  2
TEXTSTYLE2
 70
     0
 40
0.0
 41
1.0
 50
0.0
 71
     0
 42
0.2
  3
ltypeshp.shx
  4

  0
STYLE
  2
TEXTSTYLE3
 70
     0
 40
0.0
 41
1.0
 50
0.0
 71
     0
 42
0.2
  3
ltypeshp.shx
  4

  0
STYLE
  2
TEXTSTYLE4
 70
     0
 40
0.0
 41
1.0
 50
0.0
 71
     0
 42
0.2
  3
qcadshp.shx
  4

  0
STYLE
  2
TEXTSTYLE5
 70
     0
 40
0.0
 41
1.0
 50
0.0
 71
     0
 42
0.2
  3
qcadshp.shx
  4

  0
STYLE
  2
TEXTSTYLE6
 70
     0
 40
0.0
 41
1.0
 50
0.0
 71
     0
 42
0.2
  3
ltypeshp.shx
  4

  0
STYLE
  2
TEXTSTYLE7
 70
     0
 40
0.0
 41
1.0
 50
0.0
 71
     0
 42
0.2
  3
ltypeshp.shx
  4

  0
STYLE
  2
TEXTSTYLE8
 70
     0
 40
0.0
 41
1.0
 50
0.0
 71
     0
 42
0.2
  3
STANDARD
  4

  0
STYLE
  2
TEXTSTYLE9
 70
     0
 40
0.0
 41
1.0
 50
0.0
 71
     0
 42
0.2
  3
ltypeshp.shx
  4

  0
STYLE
  2
TEXTSTYLE10
 70
     0
 40
0.0
 41
1.0
 50
0.0
 71
     0
 42
0.2
  3
ltypeshp.shx
  4

  0
STYLE
  2
TEXTSTYLE11
 70
     0
 40
0.0
 41
1.0
 50
0.0
 71
     0
 42
0.2
  3
SIMPLEX
  4

  0
STYLE
  2
TEXTSTYLE12
 70
     0
 40
0.0
 41
1.0
 50
0.0
 71
     0
 42
0.2
  3
SIMPLEX
  4

  0
STYLE
  2
TEXTSTYLE13
 70
     0
 40
0.0
 41
1.0
 50
0.0
 71
     0
 42
0.2
  3
SIMPLEX
  4

  0
STYLE
  2
TEXTSTYLE14
 70
     0
 40
0.0
 41
1.0
 50
0.0
 71
     0
 42
0.2
  3
SIMPLEX
  4

  0
STYLE
  2
TEXTSTYLE15
 70
     0
 40
0.0
 41
1.0
 50
0.0
 71
     0
 42
0.2
  3
SIMPLEX
  4

  0
STYLE
  2
TEXTSTYLE16
 70
     0
 40
0.0
 41
1.0
 50
0.0
 71
     0
 42
0.2
  3
SIMPLEX
  4

  0
STYLE
  2
TEXTSTYLE17
 70
     0
 40
0.0
 41
1.0
 50
0.0
 71
     0
 42
0.2
  3
SIMPLEX
  4

  0
STYLE
  2
TEXTSTYLE18
 70
     0
 40
0.0
 41
1.0
 50
0.0
 71
     0
 42
0.2
  3
SIMPLEX
  4

  0
STYLE
  2
TEXTSTYLE19
 70
     0
 40
0.0
 41
1.0
 50
0.0
 71
     0
 42
0.2
  3
SIMPLEX
  4

  0
STYLE
  2
TEXTSTYLE20
 70
     0
 40
0.0
 41
1.0
 50
0.0
 71
     0
 42
0.2
  3
SIMPLEX
  4

  0
STYLE
  2
TEXTSTYLE21
 70
     0
 40
0.0
 41
1.0
 50
0.0
 71
     0
 42
0.2
  3
SIMPLEX
  4

  0
STYLE
  2
TEXTSTYLE22
 70
     0
 40
0.0
 41
1.0
 50
0.0
 71
     0
 42
0.2
  3
Standard
  4

  0
STYLE
  2
TEXTSTYLE23
 70
     0
 40
0.0
 41
1.0
 50
0.0
 71
     0
 42
0.2
  3
SIMPLEX
  4

  0
ENDTAB
  0
TABLE
  2
VIEW
 70
     0
  0
ENDTAB
  0
TABLE
  2
UCS
 70
     0
  0
ENDTAB
  0
TABLE
  2
APPID
 70
     6
  0
APPID
  2
ACAD
 70
     0
  0
APPID
  2
QCAD
 70
     0
  0
APPID
  2
ACDBDYNAMICBLOCKGUID
 70
     0
  0
APPID
  2
GRADIENTCOLOR1ACI
 70
     0
  0
APPID
  2
GRADIENTCOLOR2ACI
 70
     0
  0
APPID
  2
ACAD_MLEADERVER
 70
     0
  0
ENDTAB
  0
TABLE
  2
DIMSTYLE
 70
     2
  0
DIMSTYLE
  2
STANDARD
 70
     0
  3

  4

  5

  6

  7

 40
1.0
 41
0.18
 42
0.0625
 43
0.38
 44
0.18
 45
0.0
 46
0.0
 47
0.0
 48
0.0
140
0.18
141
0.09
142
0.0
143
25.4
144
1.0
145
0.0
146
1.0
147
0.09
 71
     0
 72
     0
 73
     1
 74
     1
 75
     0
 76
     0
 77
     0
 78
     0
170
     0
171
     2
172
     0
173
     0
174
     0
175
     0
176
     0
177
     0
178
     0
  0
DIMSTYLE
  2
QCADDIMSTYLE
 70
     0
  3

  4

  5

  6

  7

 40
1.0
 41
2.5
 42
0.625
 43
0.38
 44
1.25
 45
0.0
 46
0.0
 47
0.0
 48
0.0
140
2.5
141
0.09
142
0.0
143
25.4
144
1.0
145
0.0
146
1.0
147
0.625
 71
     0
 72
     0
 73
     0
 74
     1
 75
     0
 76
     0
 77
     1
 78
     0
170
     0
171
     2
172
     0
173
     0
174
     0
175
     0
176
     0
177
     0
178
     0
  0
ENDTAB
  0
ENDSEC
  0
SECTION
  2
BLOCKS
  0
BLOCK
  8
0
  2
$MODEL_SPACE
 70
     0
 10
0.0
 20
0.0
 30
0.0
  3
$MODEL_SPACE
  1

  0
ENDBLK
  5
21
  8
0
  0
BLOCK
 67
     1
  8
0
  2
$PAPER_SPACE
 70
     0
 10
0.0
 20
0.0
 30
0.0
  3
$PAPER_SPACE
  1

  0
ENDBLK
  5
76
 67
     1
  8
0
  0
BLOCK
  8
0
  2
NRE-100
 70
     0
 10
0.0
 20
0.0
 30
0.0
  3
NRE-100
  1

  0
LINE
  5
307
  8
0
 10
6770.389752261731
 20
-339.9267598989031
 30
0.0
 11
7169.415372365656
 21
-312.0241704012274
 31
0.0
  0
LINE
  5
308
  8
0
 10
7169.415372365656
 20
-312.0241704012274
 30
0.0
 11
7141.512782867982
 21
87.00144970270253
 31
0.0
  0
LINE
  5
309
  8
0
 10
7141.512782867982
 20
87.00144970270253
 30
0.0
 11
6742.433651781705
 21
59.88400541309943
 31
0.0
  0
LINE
  5
30A
  8
0
 10
7156.323766720709
 20
-124.9817626942031
 30
0.0
 11
6757.271391125605
 21
-152.491779587838
 31
0.0
  0
LINE
  5
30B
  8
0
 10
7154.604388512934
 20
-100.0409580043217
 30
0.0
 11
6755.552012917828
 21
-127.5509748979621
 31
0.0
  0
LINE
  5
30C
  8
0
 10
7054.828854244081
 20
-106.9193198464607
 30
0.0
 11
6868.533395366227
 21
-144.8215593273651
 31
0.0
  0
LINE
  5
30D
  8
0
 10
6770.389752261731
 20
-339.9267598989031
 30
0.0
 11
6742.433651781705
 21
59.88400541309943
 31
0.0
  0
TEXT
  5
30E
  8
0
 10
6887.341307871391
 20
-224.8252765845955
 30
0.0
 40
49.99999999999999
  1
GeKau
 50
354.0000000000034
 41
1.0
  7
TEXTSTYLE0
  0
LINE
  5
30F
  8
0
 10
0.0
 20
0.0
 30
0.0
 11
162.6946572302686
 21
-365.4181830570619
 31
0.0
  0
LINE
  5
310
  8
0
 10
2612.74958138174
 20
1.280468645272322
 30
0.0
 11
1817.13206508714
 21
84.90323925950793
 31
0.0
  0
LINE
  5
311
  8
0
 10
1817.13206508714
 20
84.90323925950793
 30
0.0
 11
1775.320679780018
 21
-312.9055188877949
 31
0.0
  0
LINE
  5
312
  8
0
 10
1775.320679780018
 20
-312.9055188877949
 30
0.0
 11
2570.668739781681
 21
-396.5006604427235
 31
0.0
  0
LINE
  5
313
  8
0
 10
1775.320679780018
 20
-312.9055188877949
 30
0.0
 11
979.7031634854075
 21
-229.2827482735586
 31
0.0
  0
LINE
  5
314
  8
0
 10
979.7031634854075
 20
-229.2827482735586
 30
0.0
 11
1021.514548792527
 21
168.5260098737483
 31
0.0
  0
LINE
  5
315
  8
0
 10
1021.514548792527
 20
168.5260098737483
 30
0.0
 11
1817.13206508714
 21
84.90323925950793
 31
0.0
  0
LINE
  5
316
  8
0
 10
2590.318416507965
 20
-210.7564999840997
 30
0.0
 11
1794.700900213358
 21
-127.1337293698637
 31
0.0
  0
LINE
  5
317
  8
0
 10
2592.931628089656
 20
-185.8934525998927
 30
0.0
 11
1797.314111795053
 21
-102.2706819856571
 31
0.0
  0
LINE
  5
318
  8
0
 10
1794.700900213358
 20
-127.1337293698637
 30
0.0
 11
999.2269790752798
 21
-43.52605121474198
 31
0.0
  0
LINE
  5
319
  8
0
 10
1797.314111795053
 20
-102.2706819856571
 30
0.0
 11
1001.840190656975
 21
-18.66300383053545
 31
0.0
  0
LINE
  5
31A
  8
0
 10
1800.449965693087
 20
-72.43502512460941
 30
0.0
 11
1004.976044555009
 21
11.17265303051227
 31
0.0
  0
LINE
  5
31B
  8
0
 10
2441.140097999255
 20
-195.0772268990008
 30
0.0
 11
2302.747960970607
 21
-155.3939201807139
 31
0.0
  0
LINE
  5
31C
  8
0
 10
1800.449965693087
 20
-72.43502512460941
 30
0.0
 11
2049.22403469168
 21
-98.58223340067298
 31
0.0
  0
LINE
  5
31D
  8
0
 10
2049.22403469168
 20
-98.58223340067298
 30
0.0
 11
2215.294599126058
 21
-146.202201462617
 31
0.0
  0
LINE
  5
31E
  8
0
 10
385.4143924707787
 20
235.9492255453324
 30
0.0
 11
388.8860284779648
 21
233.5310197193708
 31
0.0
  0
ARC
  5
31F
  8
0
 10
1103.34460178127
 20
1259.225392831263
 30
0.0
 40
1250.0
 50
235.1404400000274
 51
265.4956970106518
  0
LINE
  5
320
  8
0
 10
979.7031634854075
 20
-229.2827482735586
 30
0.0
 11
160.7130163146549
 21
-360.9673446879178
 31
0.0
  0
LINE
  5
321
  8
0
 10
397.2210196092678
 20
61.6303255554983
 30
0.0
 11
269.136076052328
 21
75.26961666284092
 31
0.0
  0
LINE
  5
322
  8
0
 10
269.136076052328
 20
75.26961666284092
 30
0.0
 11
501.5246195885175
 21
396.1204158898022
 31
0.0
  0
LINE
  5
323
  8
0
 10
501.5246195885175
 20
396.1204158898022
 30
0.0
 11
1023.322746943466
 21
185.7300330588823
 31
0.0
  0
LINE
  5
324
  8
0
 10
1023.322746943466
 20
185.7300330588823
 30
0.0
 11
979.7031634854075
 21
-229.2827482735586
 31
0.0
  0
LINE
  5
325
  8
0
 10
397.2210196092678
 20
61.6303255554983
 30
0.0
 11
0.0
 21
0.0
 31
0.0
  0
LINE
  5
326
  8
0
 10
0.0
 20
0.0
 30
0.0
 11
160.7130163146549
 21
-360.9673446879178
 31
0.0
  0
LINE
  5
327
  8
0
 10
85.44071619577062
 20
-191.9029905644941
 30
0.0
 11
125.6782004484494
 21
-173.988108350555
 31
0.0
  0
ARC
  5
328
  8
0
 10
796.7936615233066
 20
-1681.338113460946
 30
0.0
 40
1650.0
 50
83.99999999999182
 51
113.9999999999956
  0
LINE
  5
329
  8
0
 10
75.27230011888059
 20
-169.0643541234279
 30
0.0
 11
121.6293785621692
 21
-148.4248530333855
 31
0.0
  0
ARC
  5
32A
  8
0
 10
792.7448396370201
 20
-1655.774858143772
 30
0.0
 40
1650.0
 50
83.99999999999182
 51
113.9999999999956
  0
LINE
  5
32B
  8
0
 10
999.2269713061105
 20
-43.52605039816945
 30
0.0
 11
969.2656259151686
 21
-40.37698610331927
 31
0.0
  0
LINE
  5
32C
  8
0
 10
1001.840190656975
 20
-18.66300383053545
 30
0.0
 11
965.2168040288889
 21
-14.81373078614615
 31
0.0
  0
LINE
  5
32D
  8
0
 10
2570.668739781681
 20
-396.5006604427235
 30
0.0
 11
2612.480197019835
 21
1.308782082622884
 31
0.0
  0
LINE
  5
32E
  8
0
 10
2170.548621306107
 20
-189.2608529618976
 30
0.0
 11
2170.025978989768
 21
-194.2334624387388
 31
0.0
  0
INSERT
  5
32F
  8
0
  2
*U1
 10
0.0
 20
0.0
 30
0.0
1001
ACAD
1002
{
1000
R14_HATCH_DATA
1000
32F
1011
1.0
1021
0.0
1031
0.0
1021
0.0
1031
0.0
1011
0.0
1021
1.0
1031
0.0
1021
1.0
1031
0.0
1011
0.0
1021
0.0
1031
1.0
1021
0.0
1031
1.0
1040
0.0
1010
0.0
1020
0.0
1030
1.0
1020
0.0
1030
1.0
1000
SOLID
1070
     1
1070
     1
1071
        1
1071
        0
1071
        4
1070
     1
1040
2258.551118361871
1040
-201.0240588153351
1040
2243.011713746741
1040
-199.3908015767759
1070
     1
1040
2243.011713746741
1040
-199.3908015767759
1040
2239.745199269622
1040
-230.4696108070339
1070
     1
1040
2239.745199269622
1040
-230.4696108070339
1040
2255.284603884752
1040
-232.1028680455931
1070
     1
1040
2255.284603884752
1040
-232.1028680455931
1040
2258.551118361871
1040
-201.0240588153351
1071
        0
1070
     0
1070
     1
1071
        1
1040
0.0
1040
0.0
1040
0.0
1002
}
  0
INSERT
  5
330
  8
0
  2
*U2
 10
0.0
 20
0.0
 30
0.0
1001
ACAD
1002
{
1000
R14_HATCH_DATA
1000
330
1011
1.0
1021
0.0
1031
0.0
1021
0.0
1031
0.0
1011
0.0
1021
1.0
1031
0.0
1021
1.0
1031
0.0
1011
0.0
1021
0.0
1031
1.0
1021
0.0
1031
1.0
1040
0.0
1010
0.0
1020
0.0
1030
1.0
1020
0.0
1030
1.0
1000
SOLID
1070
     1
1070
     1
1071
        1
1071
        0
1071
        4
1070
     1
1040
2227.04860068354
1040
-207.7680935814415
1040
2228.093885316217
1040
-197.8228746277589
1070
     1
1040
2228.093885316217
1040
-197.8228746277589
1040
2200.122957008985
1040
-194.8830115983521
1070
     1
1040
2200.122957008985
1040
-194.8830115983521
1040
2199.077672376307
1040
-204.8282305520347
1070
     1
1040
2199.077672376307
1040
-204.8282305520347
1040
2227.04860068354
1040
-207.7680935814415
1071
        0
1070
     0
1070
     1
1071
        1
1040
0.0
1040
0.0
1040
0.0
1002
}
  0
LINE
  5
331
  8
0
 10
2170.287300147938
 20
-191.7471577003182
 30
0.0
 11
2258.551118361871
 21
-201.0240588153351
 31
0.0
  0
LINE
  5
332
  8
0
 10
2258.551118361871
 20
-201.0240588153351
 30
0.0
 11
2255.284603884752
 21
-232.1028680455931
 31
0.0
  0
LINE
  5
333
  8
0
 10
2255.284603884752
 20
-232.1028680455931
 30
0.0
 11
2239.745199269622
 21
-230.4696108070339
 31
0.0
  0
LINE
  5
334
  8
0
 10
2239.745199269622
 20
-230.4696108070339
 30
0.0
 11
2243.011713746741
 21
-199.3908015767759
 31
0.0
  0
LINE
  5
335
  8
0
 10
2200.122957008985
 20
-194.8830115983521
 30
0.0
 11
2199.077672376307
 21
-204.8282305520347
 31
0.0
  0
LINE
  5
336
  8
0
 10
2199.077672376307
 20
-204.8282305520347
 30
0.0
 11
2227.04860068354
 21
-207.7680935814415
 31
0.0
  0
LINE
  5
337
  8
0
 10
2227.04860068354
 20
-207.7680935814415
 30
0.0
 11
2228.093885316217
 21
-197.8228746277589
 31
0.0
  0
LINE
  5
338
  8
0
 10
1855.807399939593
 20
-25.46414124028092
 30
0.0
 11
1855.284757623254
 21
-30.43675071712232
 31
0.0
  0
INSERT
  5
339
  8
0
  2
*U3
 10
0.0
 20
0.0
 30
0.0
1001
ACAD
1002
{
1000
R14_HATCH_DATA
1000
339
1011
1.0
1021
0.0
1031
0.0
1021
0.0
1031
0.0
1011
0.0
1021
1.0
1031
0.0
1021
1.0
1031
0.0
1011
0.0
1021
0.0
1031
1.0
1021
0.0
1031
1.0
1040
0.0
1010
0.0
1020
0.0
1030
1.0
1020
0.0
1030
1.0
1000
SOLID
1070
     1
1070
     1
1071
        1
1071
        0
1071
        4
1070
     1
1040
1943.809896995357
1040
-37.22734709371798
1040
1928.270492380228
1040
-35.5940898551587
1070
     1
1040
1928.270492380228
1040
-35.5940898551587
1040
1925.003977903109
1040
-66.67289908541693
1070
     1
1040
1925.003977903109
1040
-66.67289908541693
1040
1940.543382518238
1040
-68.30615632397621
1070
     1
1040
1940.543382518238
1040
-68.30615632397621
1040
1943.809896995357
1040
-37.22734709371798
1071
        0
1070
     0
1070
     1
1071
        1
1040
0.0
1040
0.0
1040
0.0
1002
}
  0
INSERT
  5
33A
  8
0
  2
*U4
 10
0.0
 20
0.0
 30
0.0
1001
ACAD
1002
{
1000
R14_HATCH_DATA
1000
33A
1011
1.0
1021
0.0
1031
0.0
1021
0.0
1031
0.0
1011
0.0
1021
1.0
1031
0.0
1021
1.0
1031
0.0
1011
0.0
1021
0.0
1031
1.0
1021
0.0
1031
1.0
1040
0.0
1010
0.0
1020
0.0
1030
1.0
1020
0.0
1030
1.0
1000
SOLID
1070
     1
1070
     1
1071
        1
1071
        0
1071
        4
1070
     1
1040
1912.307379317026
1040
-43.97138185982476
1040
1913.352663949704
1040
-34.02616290614219
1070
     1
1040
1913.352663949704
1040
-34.02616290614219
1040
1885.381735642472
1040
-31.08629987673544
1070
     1
1040
1885.381735642472
1040
-31.08629987673544
1040
1884.336451009794
1040
-41.03151883041801
1070
     1
1040
1884.336451009794
1040
-41.03151883041801
1040
1912.307379317026
1040
-43.97138185982476
1071
        0
1070
     0
1070
     1
1071
        1
1040
0.0
1040
0.0
1040
0.0
1002
}
  0
LINE
  5
33B
  8
0
 10
1855.546078781424
 20
-27.95044597870174
 30
0.0
 11
1943.809896995357
 21
-37.22734709371798
 31
0.0
  0
LINE
  5
33C
  8
0
 10
1943.809896995357
 20
-37.22734709371798
 30
0.0
 11
1940.543382518238
 21
-68.30615632397621
 31
0.0
  0
LINE
  5
33D
  8
0
 10
1940.543382518238
 20
-68.30615632397621
 30
0.0
 11
1925.003977903109
 21
-66.67289908541693
 31
0.0
  0
LINE
  5
33E
  8
0
 10
1925.003977903109
 20
-66.67289908541693
 30
0.0
 11
1928.270492380228
 21
-35.5940898551587
 31
0.0
  0
LINE
  5
33F
  8
0
 10
1885.381735642472
 20
-31.08629987673544
 30
0.0
 11
1884.336451009794
 21
-41.03151883041801
 31
0.0
  0
LINE
  5
340
  8
0
 10
1884.336451009794
 20
-41.03151883041801
 30
0.0
 11
1912.307379317026
 21
-43.97138185982476
 31
0.0
  0
LINE
  5
341
  8
0
 10
1912.307379317026
 20
-43.97138185982476
 30
0.0
 11
1913.352663949704
 21
-34.02616290614219
 31
0.0
  0
LINE
  5
342
  8
0
 10
1884.336451009794
 20
-41.03151883041801
 30
0.0
 11
1925.003977903109
 21
-66.67289908541693
 31
0.0
  0
LINE
  5
343
  8
0
 10
2571.798317078832
 20
-146.5841445211443
 30
0.0
 11
2572.320959395172
 21
-141.6115350443031
 31
0.0
  0
INSERT
  5
344
  8
0
  2
*U5
 10
0.0
 20
0.0
 30
0.0
1001
ACAD
1002
{
1000
R14_HATCH_DATA
1000
344
1011
1.0
1021
0.0
1031
0.0
1021
0.0
1031
0.0
1011
0.0
1021
1.0
1031
0.0
1021
1.0
1031
0.0
1011
0.0
1021
0.0
1031
1.0
1021
0.0
1031
1.0
1040
0.0
1010
0.0
1020
0.0
1030
1.0
1020
0.0
1030
1.0
1000
SOLID
1070
     1
1070
     1
1071
        1
1071
        0
1071
        4
1070
     1
1040
2483.795820023069
1040
-134.8209386677067
1040
2499.335224638198
1040
-136.4541959062663
1070
     1
1040
2499.335224638198
1040
-136.4541959062663
1040
2502.601739115316
1040
-105.375386676008
1070
     1
1040
2502.601739115316
1040
-105.375386676008
1040
2487.062334500188
1040
-103.7421294374487
1070
     1
1040
2487.062334500188
1040
-103.7421294374487
1040
2483.795820023069
1040
-134.8209386677067
1071
        0
1070
     0
1070
     1
1071
        1
1040
0.0
1040
0.0
1040
0.0
1002
}
  0
INSERT
  5
345
  8
0
  2
*U6
 10
0.0
 20
0.0
 30
0.0
1001
ACAD
1002
{
1000
R14_HATCH_DATA
1000
345
1011
1.0
1021
0.0
1031
0.0
1021
0.0
1031
0.0
1011
0.0
1021
1.0
1031
0.0
1021
1.0
1031
0.0
1011
0.0
1021
0.0
1031
1.0
1021
0.0
1031
1.0
1040
0.0
1010
0.0
1020
0.0
1030
1.0
1020
0.0
1030
1.0
1000
SOLID
1070
     1
1070
     1
1071
        1
1071
        0
1071
        4
1070
     1
1040
2515.2983377014
1040
-128.0769039016004
1040
2514.253053068722
1040
-138.0221228552832
1070
     1
1040
2514.253053068722
1040
-138.0221228552832
1040
2542.223981375954
1040
-140.9619858846897
1070
     1
1040
2542.223981375954
1040
-140.9619858846897
1040
2543.269266008632
1040
-131.0167669310072
1070
     1
1040
2543.269266008632
1040
-131.0167669310072
1040
2515.2983377014
1040
-128.0769039016004
1071
        0
1070
     0
1070
     1
1071
        1
1040
0.0
1040
0.0
1040
0.0
1002
}
  0
LINE
  5
346
  8
0
 10
2572.059638237002
 20
-144.0978397827237
 30
0.0
 11
2483.795820023069
 21
-134.8209386677067
 31
0.0
  0
LINE
  5
347
  8
0
 10
2483.795820023069
 20
-134.8209386677067
 30
0.0
 11
2487.062334500188
 21
-103.7421294374487
 31
0.0
  0
LINE
  5
348
  8
0
 10
2487.062334500188
 20
-103.7421294374487
 30
0.0
 11
2502.601739115316
 21
-105.375386676008
 31
0.0
  0
LINE
  5
349
  8
0
 10
2502.601739115316
 20
-105.375386676008
 30
0.0
 11
2499.335224638198
 21
-136.4541959062663
 31
0.0
  0
LINE
  5
34A
  8
0
 10
2542.223981375954
 20
-140.9619858846897
 30
0.0
 11
2543.269266008632
 21
-131.0167669310072
 31
0.0
  0
LINE
  5
34B
  8
0
 10
2543.269266008632
 20
-131.0167669310072
 30
0.0
 11
2515.2983377014
 21
-128.0769039016004
 31
0.0
  0
LINE
  5
34C
  8
0
 10
2515.2983377014
 20
-128.0769039016004
 30
0.0
 11
2514.253053068722
 21
-138.0221228552832
 31
0.0
  0
LINE
  5
34D
  8
0
 10
1477.462401325847
 20
120.6039595121383
 30
0.0
 11
1405.337968570425
 21
-16.1840430267107
 31
0.0
  0
LINE
  5
34E
  8
0
 10
1520.307715812742
 20
116.1007354982696
 30
0.0
 11
1448.183283057321
 21
-20.68726704057985
 31
0.0
  0
POLYLINE
  5
34F
  8
0
 66
     1
 10
0.0
 20
0.0
 30
0.0
 70
     1
  0
VERTEX
  5
44E
  8
0
 10
1410.063467762066
 20
-116.8719545643676
 30
0.0
  0
VERTEX
  5
44F
  8
0
 10
1469.734781484161
 20
-123.143662360435
 30
0.0
  0
VERTEX
  5
450
  8
0
 10
1465.55364295345
 20
-162.9245381751653
 30
0.0
  0
VERTEX
  5
451
  8
0
 10
1405.882329231353
 20
-156.6528303790976
 30
0.0
  0
SEQEND
  5
44D
  8
0
  0
LINE
  5
350
  8
0
 10
1405.843907440707
 20
-100.9862503126969
 30
0.0
 11
1319.372827246701
 21
-264.9834685261878
 31
0.0
  0
LINE
  5
351
  8
0
 10
1362.998592953812
 20
-96.48302629882824
 30
0.0
 11
1276.527512759805
 21
-260.4802445123182
 31
0.0
  0
LINE
  5
352
  8
0
 10
1415.789126394391
 20
-102.0315349453749
 30
0.0
 11
1351.145203195454
 21
-95.2371848329683
 31
0.0
  0
POLYLINE
  5
353
  8
0
 66
     1
 10
0.0
 20
0.0
 30
0.0
 70
     1
  0
VERTEX
  5
453
  8
0
 10
1345.911272560443
 20
-97.20084725504989
 30
0.0
  0
VERTEX
  5
454
  8
0
 10
1350.883882037285
 20
-97.72348957138888
 30
0.0
  0
VERTEX
  5
455
  8
0
 10
1351.406524353623
 20
-92.75088009454771
 30
0.0
  0
VERTEX
  5
456
  8
0
 10
1346.433914876782
 20
-92.22823777820872
 30
0.0
  0
SEQEND
  5
452
  8
0
  0
INSERT
  5
354
  8
0
  2
*U7
 10
0.0
 20
0.0
 30
0.0
1001
ACAD
1002
{
1000
R14_HATCH_DATA
1000
354
1011
1.0
1021
0.0
1031
0.0
1021
0.0
1031
0.0
1011
0.0
1021
1.0
1031
0.0
1021
1.0
1031
0.0
1011
0.0
1021
0.0
1031
1.0
1021
0.0
1031
1.0
1040
0.0
1010
0.0
1020
0.0
1030
1.0
1020
0.0
1030
1.0
1000
SOLID
1070
     1
1070
     1
1071
        1
1071
        0
1071
        4
1070
     1
1040
1345.911272560443
1040
-97.20084725504989
1040
1350.883882037285
1040
-97.72348957138888
1070
     1
1040
1350.883882037285
1040
-97.72348957138888
1040
1351.406524353623
1040
-92.75088009454771
1070
     1
1040
1351.406524353623
1040
-92.75088009454771
1040
1346.433914876782
1040
-92.22823777820872
1070
     1
1040
1346.433914876782
1040
-92.22823777820872
1040
1345.911272560443
1040
-97.20084725504989
1071
        0
1070
     0
1070
     1
1071
        1
1040
0.0
1040
0.0
1040
0.0
1002
}
  0
LINE
  5
355
  8
0
 10
1395.392749616743
 20
-15.13875839403295
 30
0.0
 11
1460.036672815679
 21
-21.93310850643957
 31
0.0
  0
INSERT
  5
356
  8
0
  2
*U8
 10
0.0
 20
0.0
 30
0.0
1001
ACAD
1002
{
1000
R14_HATCH_DATA
1000
356
1011
1.0
1021
0.0
1031
0.0
1021
0.0
1031
0.0
1011
0.0
1021
1.0
1031
0.0
1021
1.0
1031
0.0
1011
0.0
1021
0.0
1031
1.0
1021
0.0
1031
1.0
1040
0.0
1010
0.0
1020
0.0
1030
1.0
1020
0.0
1030
1.0
1000
SOLID
1070
     1
1070
     1
1071
        1
1071
        0
1071
        4
1070
     1
1040
1465.27060345069
1040
-19.96944608435729
1040
1460.297993973849
1040
-19.44680376801898
1070
     1
1040
1460.297993973849
1040
-19.44680376801898
1040
1459.775351657509
1040
-24.41941324486015
1070
     1
1040
1459.775351657509
1040
-24.41941324486015
1040
1464.747961134351
1040
-24.94205556119869
1070
     1
1040
1464.747961134351
1040
-24.94205556119869
1040
1465.27060345069
1040
-19.96944608435729
1071
        0
1070
     0
1070
     1
1071
        1
1040
0.0
1040
0.0
1040
0.0
1002
}
  0
POLYLINE
  5
357
  8
0
 66
     1
 10
0.0
 20
0.0
 30
0.0
 70
     1
  0
VERTEX
  5
466
  8
0
 10
1465.27060345069
 20
-19.96944608435729
 30
0.0
  0
VERTEX
  5
467
  8
0
 10
1460.297993973849
 20
-19.44680376801898
 30
0.0
  0
VERTEX
  5
468
  8
0
 10
1459.775351657509
 20
-24.41941324486015
 30
0.0
  0
VERTEX
  5
469
  8
0
 10
1464.747961134351
 20
-24.94205556119869
 30
0.0
  0
SEQEND
  5
465
  8
0
  0
TEXT
  5
358
  8
0
 10
2152.012415451239
 20
-27.53575925229253
 30
0.0
 40
50.00000000000001
  1
800
 50
354.0000000000048
  7
TEXTSTYLE15
 72
     1
 11
2206.911101648494
 21
-33.30584368214068
 31
0.0
  0
TEXT
  5
359
  8
0
 10
1256.942709619807
 20
66.53985768872671
 30
0.0
 40
50.00000000000001
  1
800
 50
354.0000000000048
  7
TEXTSTYLE16
 72
     1
 11
1311.841395817062
 21
60.76977325887856
 31
0.0
  0
TEXT
  5
35A
  8
0
 10
2026.513090347607
 20
-324.2246268808087
 30
0.0
 40
50.0
  1
N-RE 102
 50
354.0000000000048
  7
TEXTSTYLE17
 72
     1
 11
2174.562636729851
 21
-339.7852612347322
 31
0.0
  0
TEXT
  5
35B
  8
0
 10
1474.166548392503
 20
-266.1703200177366
 30
0.0
 40
50.0
  1
GeKau
 50
354.0000000000048
  7
TEXTSTYLE18
 72
     1
 11
1577.984227655365
 21
-277.0819978037082
 31
0.0
  0
TEXT
  5
35C
  8
0
 10
425.7648205796663
 20
-302.8156359638649
 30
0.0
 40
50.0
  1
1000, 30°
 50
8.999999999998817
  7
TEXTSTYLE19
 72
     1
 11
567.8615729244293
 21
-280.3097213718083
 31
0.0
  0
TEXT
  5
35D
  8
0
 10
409.9900531107451
 20
-236.9727176899894
 30
0.0
 40
50.0
  1
N-RE 103
 50
8.999999999998817
  7
TEXTSTYLE20
 72
     1
 11
557.3022465342233
 21
-213.6407583816351
 31
0.0
  0
TEXT
  5
35E
  8
0
 10
443.6091270753126
 20
-163.3065834851946
 30
0.0
 40
50.0
  1
GeKau
 50
8.999999999998817
  7
TEXTSTYLE21
 72
     1
 11
546.7429201440173
 21
-146.9717953914635
 31
0.0
  0
LINE
  5
35F
  8
0
  6
BYBLOCK
 10
3845.172126021733
 20
-890.4700040587279
 30
0.0
 11
4508.473291653732
 21
-891.4738645387281
 31
0.0
  0
LINE
  5
360
  8
0
  6
BYBLOCK
 10
4928.298702021733
 20
395.0546391412727
 30
0.0
 11
5140.148610501732
 21
289.0095044212721
 31
0.0
  0
LINE
  5
361
  8
0
  6
BYBLOCK
 10
5140.148610501732
 20
289.0095044212721
 30
0.0
 11
5441.745059781733
 21
25.05888355727234
 31
0.0
  0
LINE
  5
362
  8
0
  6
BYBLOCK
 10
4928.298702021733
 20
395.0546391412727
 30
0.0
 11
4075.621731141732
 21
388.0417546612725
 31
0.0
  0
LINE
  5
363
  8
0
  6
BYBLOCK
 10
4075.621731141732
 20
388.0417546612725
 30
0.0
 11
3841.163753541733
 21
36.34948618127214
 31
0.0
  0
LINE
  5
364
  8
0
  6
BYBLOCK
 10
2570.668739781733
 20
-396.5006604427279
 30
0.0
 11
3097.702561221733
 21
-457.6223317387278
 31
0.0
  0
LINE
  5
365
  8
0
  6
BYBLOCK
 10
3097.702561221733
 20
-457.6223317387278
 30
0.0
 11
3384.265846341733
 21
-743.1817563787274
 31
0.0
  0
LINE
  5
366
  8
0
  6
BYBLOCK
 10
3384.265846341733
 20
-743.1817563787274
 30
0.0
 11
3845.172126021733
 21
-890.4700040587279
 31
0.0
  0
LINE
  5
367
  8
0
  6
BYBLOCK
 10
4508.473291653732
 20
-891.4738645387281
 30
0.0
 11
4788.022455141732
 21
-889.4696782987278
 31
0.0
  0
LINE
  5
368
  8
0
  6
BYBLOCK
 10
4788.022455141732
 20
-889.4696782987278
 30
0.0
 11
5170.773424581733
 21
-529.7624322187278
 31
0.0
  0
LINE
  5
369
  8
0
  6
BYBLOCK
 10
5170.773424581733
 20
-529.7624322187278
 30
0.0
 11
6570.483662661732
 21
-353.905517082728
 31
0.0
  0
LINE
  5
36A
  8
0
  6
BYBLOCK
 10
6542.527562181732
 20
45.90524822927205
 30
0.0
 11
5441.745059781733
 21
25.05888355727234
 31
0.0
  0
LINE
  5
36B
  8
0
  6
BYBLOCK
 10
6742.433651781732
 20
59.88400541327223
 30
0.0
 11
6770.389752261734
 21
-339.9267598987278
 31
0.0
  0
LINE
  5
36C
  8
0
  6
BYBLOCK
 10
6770.389752261734
 20
-339.9267598987278
 30
0.0
 11
6570.483662661732
 21
-353.905517082728
 31
0.0
  0
LINE
  5
36D
  8
0
  6
BYBLOCK
 10
3844.168265541733
 20
43.36307760527211
 30
0.0
 11
2612.749581381733
 21
1.280468645272094
 31
0.0
  0
LINE
  5
36E
  8
0
  6
BYBLOCK
 10
2612.749581381733
 20
1.280468645272094
 30
0.0
 11
2570.668739781733
 21
-396.5006604427279
 31
0.0
  0
POLYLINE
  5
36F
  8
0
  6
BYBLOCK
 66
     1
 10
0.0
 20
0.0
 30
0.0
 40
9.0
 41
9.0
  0
VERTEX
  5
46B
  8
0
  6
BYBLOCK
 10
2592.953771652466
 20
-185.845055605628
 30
0.0
 42
0.0152252301373486
  0
VERTEX
  5
46C
  8
0
  6
BYBLOCK
 10
2873.799581381732
 20
-204.399531354728
 30
0.0
 42
0.0007474055928604
  0
VERTEX
  5
46D
  8
0
  6
BYBLOCK
 10
2968.979581381733
 20
-207.639531354728
 30
0.0
 42
0.0084928706701724
  0
VERTEX
  5
46E
  8
0
  6
BYBLOCK
 10
3167.709581381733
 20
-210.7295313547279
 30
0.0
 42
0.0003772032396373
  0
VERTEX
  5
46F
  8
0
  6
BYBLOCK
 10
3258.939581381733
 20
-210.5295313547281
 30
0.0
 42
0.0010950732313006
  0
VERTEX
  5
470
  8
0
  6
BYBLOCK
 10
3389.369581381733
 20
-209.859531354728
 30
0.0
 42
-0.0011071664097448
  0
VERTEX
  5
471
  8
0
  6
BYBLOCK
 10
3600.609581381733
 20
-208.7795313547281
 30
0.0
 42
0.0011269563638031
  0
VERTEX
  5
472
  8
0
  6
BYBLOCK
 10
3794.699581381733
 20
-207.7795313547281
 30
0.0
 42
-0.001129949672297
  0
VERTEX
  5
473
  8
0
  6
BYBLOCK
 10
4016.219581381733
 20
-206.639531354728
 30
0.0
 42
0.0011268819382623
  0
VERTEX
  5
474
  8
0
  6
BYBLOCK
 10
4403.369581381732
 20
-204.649531354728
 30
0.0
 42
-0.0023064166496052
  0
VERTEX
  5
475
  8
0
  6
BYBLOCK
 10
4753.959581381732
 20
-203.6745313547281
 30
0.0
 42
0.0057070305443143
  0
VERTEX
  5
476
  8
0
  6
BYBLOCK
 10
4818.139581381733
 20
-203.0595313547278
 30
0.0
 42
-0.0084070691731368
  0
VERTEX
  5
477
  8
0
  6
BYBLOCK
 10
4865.959581381732
 20
-202.859531354728
 30
0.0
 42
-0.0057610696075992
  0
VERTEX
  5
478
  8
0
  6
BYBLOCK
 10
4934.259581381733
 20
-204.5095313547281
 30
0.0
 42
-0.0066618400286636
  0
VERTEX
  5
479
  8
0
  6
BYBLOCK
 10
5034.589581381733
 20
-209.4295313547279
 30
0.0
 42
0.0059513704913009
  0
VERTEX
  5
47A
  8
0
  6
BYBLOCK
 10
5129.709581381732
 20
-214.2295313547279
 30
0.0
 42
-0.0063898645702234
  0
VERTEX
  5
47B
  8
0
  6
BYBLOCK
 10
5211.899768558746
 20
-218.4493235575242
 30
0.0
 42
0.0078852271935597
  0
VERTEX
  5
47C
  8
0
  6
BYBLOCK
 10
5318.639581381733
 20
-223.6095313547278
 30
0.0
 42
-107.0523204886833
  0
SEQEND
  5
46A
  8
0
  6
BYBLOCK
  0
POLYLINE
  5
370
  8
0
  6
BYBLOCK
 66
     1
 10
0.0
 20
0.0
 30
0.0
 40
9.0
 41
9.0
  0
VERTEX
  5
47E
  8
0
  6
BYBLOCK
 10
5319.069581381733
 20
-224.2195313547279
 30
0.0
  0
VERTEX
  5
47F
  8
0
  6
BYBLOCK
 10
6555.929389693903
 20
-145.7593552820069
 30
0.0
  0
SEQEND
  5
47D
  8
0
  6
BYBLOCK
  0
POLYLINE
  5
371
  8
0
  6
BYBLOCK
 66
     1
 10
0.0
 20
0.0
 30
0.0
 40
9.0
 41
9.0
  0
VERTEX
  5
481
  8
0
  6
BYBLOCK
 10
6328.389581381733
 20
-190.214531354728
 30
0.0
  0
VERTEX
  5
482
  8
0
  6
BYBLOCK
 10
6094.429581381733
 20
-201.714531354728
 30
0.0
  0
SEQEND
  5
480
  8
0
  6
BYBLOCK
  0
POLYLINE
  5
372
  8
0
  6
BYBLOCK
 66
     1
 10
0.0
 20
0.0
 30
0.0
 40
9.0
 41
9.0
  0
VERTEX
  5
484
  8
0
  6
BYBLOCK
 10
6094.429581381733
 20
-201.714531354728
 30
0.0
  0
VERTEX
  5
485
  8
0
  6
BYBLOCK
 10
5839.024581381733
 20
-217.6045313547279
 30
0.0
  0
VERTEX
  5
486
  8
0
  6
BYBLOCK
 10
5345.859581381733
 20
-247.379531354728
 30
0.0
  0
SEQEND
  5
483
  8
0
  6
BYBLOCK
  0
POLYLINE
  5
373
  8
0
  6
BYBLOCK
 66
     1
 10
0.0
 20
0.0
 30
0.0
 40
9.0
 41
9.0
  0
VERTEX
  5
488
  8
0
  6
BYBLOCK
 10
5345.859581381733
 20
-247.379531354728
 30
0.0
 42
0.0099725628330593
  0
VERTEX
  5
489
  8
0
  6
BYBLOCK
 10
5223.999581381733
 20
-255.6795313547279
 30
0.0
 42
0.0095661863671371
  0
VERTEX
  5
48A
  8
0
  6
BYBLOCK
 10
5158.274581381733
 20
-262.744531354728
 30
0.0
 42
-0.00622951332862
  0
VERTEX
  5
48B
  8
0
  6
BYBLOCK
 10
5104.794581381733
 20
-268.8545313547279
 30
0.0
 42
0.0015842398879938
  0
VERTEX
  5
48C
  8
0
  6
BYBLOCK
 10
5057.439581381733
 20
-273.819531354728
 30
0.0
 42
-0.0102798535094943
  0
VERTEX
  5
48D
  8
0
  6
BYBLOCK
 10
4975.089303547751
 20
-281.0082931291915
 30
0.0
 42
-0.0015061908703656
  0
VERTEX
  5
48E
  8
0
  6
BYBLOCK
 10
4927.419581381733
 20
-284.0395313547278
 30
0.0
 42
-0.0109187371815319
  0
VERTEX
  5
48F
  8
0
  6
BYBLOCK
 10
4867.429581381733
 20
-286.359531354728
 30
0.0
 42
-0.0053471154543849
  0
VERTEX
  5
490
  8
0
  6
BYBLOCK
 10
4632.88789312828
 20
-287.7956747762423
 30
0.0
 42
0.0045946927433961
  0
VERTEX
  5
491
  8
0
  6
BYBLOCK
 10
4491.309581381733
 20
-288.4495313547279
 30
0.0
 42
-0.0046094531427451
  0
VERTEX
  5
492
  8
0
  6
BYBLOCK
 10
4408.499581381733
 20
-288.8295313547278
 30
0.0
 42
0.0046229017062028
  0
VERTEX
  5
493
  8
0
  6
BYBLOCK
 10
4315.339581381732
 20
-289.2595313547281
 30
0.0
 42
-0.0046104636745385
  0
VERTEX
  5
494
  8
0
  6
BYBLOCK
 10
4209.749581381733
 20
-289.7495313547279
 30
0.0
 42
0.0045988753186293
  0
VERTEX
  5
495
  8
0
  6
BYBLOCK
 10
3739.789581381733
 20
-291.919531354728
 30
0.0
 42
-0.0045973860762298
  0
VERTEX
  5
496
  8
0
  6
BYBLOCK
 10
3644.559581381733
 20
-292.359531354728
 30
0.0
 42
0.0045993878387908
  0
VERTEX
  5
497
  8
0
  6
BYBLOCK
 10
3547.249581381733
 20
-292.8095313547278
 30
0.0
 42
-0.0046237980253594
  0
VERTEX
  5
498
  8
0
  6
BYBLOCK
 10
3420.489581381733
 20
-293.389531354728
 30
0.0
 42
0.0035914644123617
  0
VERTEX
  5
499
  8
0
  6
BYBLOCK
 10
3374.689581381733
 20
-293.504531354728
 30
0.0
 42
-0.00560278719009
  0
VERTEX
  5
49A
  8
0
  6
BYBLOCK
 10
3318.459581381733
 20
-293.419531354728
 30
0.0
 42
-56.45603781797672
  0
SEQEND
  5
487
  8
0
  6
BYBLOCK
  0
POLYLINE
  5
374
  8
0
  6
BYBLOCK
 66
     1
 10
0.0
 20
0.0
 30
0.0
 40
9.0
 41
9.0
  0
VERTEX
  5
49C
  8
0
  6
BYBLOCK
 10
3318.459581381733
 20
-293.4245313547281
 30
0.0
  0
VERTEX
  5
49D
  8
0
  6
BYBLOCK
 10
3217.209581381733
 20
-281.419531354728
 30
0.0
  0
VERTEX
  5
49E
  8
0
  6
BYBLOCK
 10
3141.199581381733
 20
-271.879531354728
 30
0.0
  0
VERTEX
  5
49F
  8
0
  6
BYBLOCK
 10
3016.569581381732
 20
-255.129531354728
 30
0.0
  0
VERTEX
  5
4A0
  8
0
  6
BYBLOCK
 10
2969.369581381733
 20
-248.8545313547279
 30
0.0
  0
VERTEX
  5
4A1
  8
0
  6
BYBLOCK
 10
2889.039581381733
 20
-237.639531354728
 30
0.0
  0
VERTEX
  5
4A2
  8
0
  6
BYBLOCK
 10
2840.80760118403
 20
-230.3237437322205
 30
0.0
  0
VERTEX
  5
4A3
  8
0
  6
BYBLOCK
 10
2827.27984113565
 20
-228.1875826745302
 30
0.0
  0
VERTEX
  5
4A4
  8
0
  6
BYBLOCK
 10
2698.249452683667
 20
-220.4294732684325
 30
0.0
  0
VERTEX
  5
4A5
  8
0
  6
BYBLOCK
 10
2590.318416507989
 20
-210.7564999841036
 30
0.0
  0
SEQEND
  5
49B
  8
0
  6
BYBLOCK
  0
ARC
  5
375
  8
0
  6
BYBLOCK
 10
4869.239619501865
 20
-482.3089902526872
 30
0.0
 40
69.08589127014542
 50
270.1824237688979
 51
137.9866350983169
  0
ARC
  5
376
  8
0
  6
BYBLOCK
 10
4869.281919913998
 20
-482.2900820693319
 30
0.0
 40
69.10467766103082
 50
138.0217567765137
 51
270.1473020907008
  0
ARC
  5
377
  8
0
  6
BYBLOCK
 10
4804.840355387437
 20
-131.89704355189
 30
0.0
 40
24.97943588424681
 50
266.4866348811366
 51
87.59080273676217
  0
ARC
  5
378
  8
0
  6
BYBLOCK
 10
4804.859258497099
 20
-131.8980214130875
 30
0.0
 40
24.97962544018571
 50
87.6342167722047
 51
266.4432208456941
  0
POLYLINE
  5
379
  8
0
  6
BYBLOCK
 66
     1
 10
0.0
 20
0.0
 30
0.0
 70
     1
  0
VERTEX
  5
4A7
  8
0
  6
BYBLOCK
 10
3979.174220188957
 20
-132.769609053174
 30
0.0
  0
VERTEX
  5
4A8
  8
0
  6
BYBLOCK
 10
4368.574581381733
 20
-132.769609053174
 30
0.0
  0
VERTEX
  5
4A9
  8
0
  6
BYBLOCK
 10
4368.574581381733
 20
-50.59953135472779
 30
0.0
  0
VERTEX
  5
4AA
  8
0
  6
BYBLOCK
 10
3979.174220188957
 20
-50.59953135472779
 30
0.0
  0
SEQEND
  5
4A6
  8
0
  6
BYBLOCK
  0
POLYLINE
  5
37A
  8
0
  6
BYBLOCK
 66
     1
 10
0.0
 20
0.0
 30
0.0
 40
9.0
 41
9.0
  0
VERTEX
  5
4AC
  8
0
  6
BYBLOCK
 10
2819.985382656738
 20
-227.8347874549697
 30
0.0
  0
VERTEX
  5
4AD
  8
0
  6
BYBLOCK
 10
2962.474581381733
 20
-232.9795313547279
 30
0.0
  0
VERTEX
  5
4AE
  8
0
  6
BYBLOCK
 10
3063.049581381732
 20
-236.399531354728
 30
0.0
  0
VERTEX
  5
4AF
  8
0
  6
BYBLOCK
 10
3193.974581381733
 20
-241.2095313547279
 30
0.0
  0
VERTEX
  5
4B0
  8
0
  6
BYBLOCK
 10
3299.499581381733
 20
-244.839531354728
 30
0.0
  0
VERTEX
  5
4B1
  8
0
  6
BYBLOCK
 10
3438.169581381733
 20
-248.2295313547279
 30
0.0
  0
VERTEX
  5
4B2
  8
0
  6
BYBLOCK
 10
3618.269581381733
 20
-250.3095313547278
 30
0.0
  0
VERTEX
  5
4B3
  8
0
  6
BYBLOCK
 10
3719.719581381733
 20
-250.3295313547278
 30
0.0
  0
VERTEX
  5
4B4
  8
0
  6
BYBLOCK
 10
3927.049581381732
 20
-249.379531354728
 30
0.0
  0
VERTEX
  5
4B5
  8
0
  6
BYBLOCK
 10
4121.659581381733
 20
-248.4795313547279
 30
0.0
  0
VERTEX
  5
4B6
  8
0
  6
BYBLOCK
 10
4502.599581381733
 20
-246.7195313547279
 30
0.0
  0
VERTEX
  5
4B7
  8
0
  6
BYBLOCK
 10
4666.149581381733
 20
-245.964531354728
 30
0.0
  0
VERTEX
  5
4B8
  8
0
  6
BYBLOCK
 10
4827.634581381733
 20
-245.2195313547279
 30
0.0
  0
VERTEX
  5
4B9
  8
0
  6
BYBLOCK
 10
4918.709581381732
 20
-244.069531354728
 30
0.0
  0
VERTEX
  5
4BA
  8
0
  6
BYBLOCK
 10
4989.079581381731
 20
-242.149531354728
 30
0.0
  0
VERTEX
  5
4BB
  8
0
  6
BYBLOCK
 10
5104.899581381733
 20
-237.0295313547281
 30
0.0
  0
VERTEX
  5
4BC
  8
0
  6
BYBLOCK
 10
5194.17675469686
 20
-231.439536134053
 30
0.0
  0
VERTEX
  5
4BD
  8
0
  6
BYBLOCK
 10
5319.029581381733
 20
-223.5795313547278
 30
0.0
  0
SEQEND
  5
4AB
  8
0
  6
BYBLOCK
  0
POLYLINE
  5
37B
  8
0
  6
BYBLOCK
 66
     1
 10
0.0
 20
0.0
 30
0.0
 40
9.0
 41
9.0
  0
VERTEX
  5
4BF
  8
0
  6
BYBLOCK
 10
3015.464581381732
 20
-234.6445313547279
 30
0.0
  0
VERTEX
  5
4C0
  8
0
  6
BYBLOCK
 10
3135.364581381733
 20
-231.004531354728
 30
0.0
  0
VERTEX
  5
4C1
  8
0
  6
BYBLOCK
 10
3193.749581381733
 20
-226.544531354728
 30
0.0
  0
VERTEX
  5
4C2
  8
0
  6
BYBLOCK
 10
3240.759581381733
 20
-221.899531354728
 30
0.0
  0
VERTEX
  5
4C3
  8
0
  6
BYBLOCK
 10
3352.104581381733
 20
-210.0495313547281
 30
0.0
  0
SEQEND
  5
4BE
  8
0
  6
BYBLOCK
  0
ARC
  5
37C
  8
0
  6
BYBLOCK
 10
4803.670549966673
 20
347.087494370775
 30
0.0
 40
23.95097528290033
 50
275.3400404861044
 51
88.51898150207281
  0
ARC
  5
37D
  8
0
  6
BYBLOCK
 10
4803.659093639475
 20
347.0871084179225
 30
0.0
 40
23.95165993766924
 50
88.4916093529657
 51
275.3674126352116
  0
POLYLINE
  5
37E
  8
0
  6
BYBLOCK
 66
     1
 10
0.0
 20
0.0
 30
0.0
 40
9.0
 41
9.0
  0
VERTEX
  5
4C5
  8
0
  6
BYBLOCK
 10
4803.277250305076
 20
323.0855097266549
 30
0.0
  0
VERTEX
  5
4C6
  8
0
  6
BYBLOCK
 10
4804.529347624006
 20
-106.9627556557064
 30
0.0
  0
SEQEND
  5
4C4
  8
0
  6
BYBLOCK
  0
POLYLINE
  5
37F
  8
0
  6
BYBLOCK
 66
     1
 10
0.0
 20
0.0
 30
0.0
 40
9.0
 41
9.0
  0
VERTEX
  5
4C8
  8
0
  6
BYBLOCK
 10
4787.395934121459
 20
-113.9958840944541
 30
0.0
  0
VERTEX
  5
4C9
  8
0
  6
BYBLOCK
 10
4677.639581381733
 20
-4.379531354727988
 30
0.0
  0
SEQEND
  5
4C7
  8
0
  6
BYBLOCK
  0
POLYLINE
  5
380
  8
0
  6
BYBLOCK
 66
     1
 10
0.0
 20
0.0
 30
0.0
 40
9.0
 41
9.0
  0
VERTEX
  5
4CB
  8
0
  6
BYBLOCK
 10
4783.253231395845
 20
-119.387360877731
 30
0.0
  0
VERTEX
  5
4CC
  8
0
  6
BYBLOCK
 10
4579.429581381733
 20
-1.539531354728069
 30
0.0
  0
SEQEND
  5
4CA
  8
0
  6
BYBLOCK
  0
POLYLINE
  5
381
  8
0
  6
BYBLOCK
 66
     1
 10
0.0
 20
0.0
 30
0.0
 40
9.0
 41
9.0
  0
VERTEX
  5
4CE
  8
0
  6
BYBLOCK
 10
4817.116595393103
 20
-110.5434356510946
 30
0.0
  0
VERTEX
  5
4CF
  8
0
  6
BYBLOCK
 10
4894.199581381732
 20
21.57046864527206
 30
0.0
  0
SEQEND
  5
4CD
  8
0
  6
BYBLOCK
  0
POLYLINE
  5
382
  8
0
  6
BYBLOCK
 66
     1
 10
0.0
 20
0.0
 30
0.0
 40
9.0
 41
9.0
  0
VERTEX
  5
4D1
  8
0
  6
BYBLOCK
 10
4823.597863100014
 20
-115.459301584498
 30
0.0
  0
VERTEX
  5
4D2
  8
0
  6
BYBLOCK
 10
5100.664581381732
 20
125.8204686452721
 30
0.0
  0
SEQEND
  5
4D0
  8
0
  6
BYBLOCK
  0
POLYLINE
  5
383
  8
0
  6
BYBLOCK
 66
     1
 10
0.0
 20
0.0
 30
0.0
 40
9.0
 41
9.0
  0
VERTEX
  5
4D4
  8
0
  6
BYBLOCK
 10
4779.759581381733
 20
-131.589531354728
 30
0.0
  0
VERTEX
  5
4D5
  8
0
  6
BYBLOCK
 10
4468.949581381733
 20
-130.984531354728
 30
0.0
  0
SEQEND
  5
4D3
  8
0
  6
BYBLOCK
  0
POLYLINE
  5
384
  8
0
  6
BYBLOCK
 66
     1
 10
0.0
 20
0.0
 30
0.0
 40
9.0
 41
9.0
  0
VERTEX
  5
4D7
  8
0
  6
BYBLOCK
 10
4783.116202022968
 20
-119.6053621527622
 30
0.0
  0
VERTEX
  5
4D8
  8
0
  6
BYBLOCK
 10
4826.537333786886
 20
-144.2749814023182
 30
0.0
  0
SEQEND
  5
4D6
  8
0
  6
BYBLOCK
  0
POLYLINE
  5
385
  8
0
  6
BYBLOCK
 66
     1
 10
0.0
 20
0.0
 30
0.0
 40
9.0
 41
9.0
  0
VERTEX
  5
4DA
  8
0
  6
BYBLOCK
 10
4829.789581381732
 20
-131.609531354728
 30
0.0
  0
VERTEX
  5
4DB
  8
0
  6
BYBLOCK
 10
5281.644581381733
 20
-130.4795313547279
 30
0.0
  0
SEQEND
  5
4D9
  8
0
  6
BYBLOCK
  0
POLYLINE
  5
386
  8
0
  6
BYBLOCK
 66
     1
 10
0.0
 20
0.0
 30
0.0
 40
9.0
 41
9.0
  0
VERTEX
  5
4DD
  8
0
  6
BYBLOCK
 10
4779.707433701807
 20
347.0871084179225
 30
0.0
  0
VERTEX
  5
4DE
  8
0
  6
BYBLOCK
 10
4393.756190566186
 20
346.9004686452718
 30
0.0
  0
SEQEND
  5
4DC
  8
0
  6
BYBLOCK
  0
POLYLINE
  5
387
  8
0
  6
BYBLOCK
 66
     1
 10
0.0
 20
0.0
 30
0.0
 40
9.0
 41
9.0
  0
VERTEX
  5
4E0
  8
0
  6
BYBLOCK
 10
4809.472892574027
 20
323.8538794722399
 30
0.0
  0
VERTEX
  5
4E1
  8
0
  6
BYBLOCK
 10
4818.239581381733
 20
292.3304686452721
 30
0.0
  0
VERTEX
  5
4E2
  8
0
  6
BYBLOCK
 10
4825.869581381732
 20
259.4004686452722
 30
0.0
  0
VERTEX
  5
4E3
  8
0
  6
BYBLOCK
 10
4828.174581381732
 20
245.0904686452723
 30
0.0
  0
VERTEX
  5
4E4
  8
0
  6
BYBLOCK
 10
4830.914581381732
 20
212.100468645272
 30
0.0
  0
VERTEX
  5
4E5
  8
0
  6
BYBLOCK
 10
4830.949581381732
 20
194.8604686452718
 30
0.0
  0
VERTEX
  5
4E6
  8
0
  6
BYBLOCK
 10
4830.479581381733
 20
12.67046864527219
 30
0.0
  0
VERTEX
  5
4E7
  8
0
  6
BYBLOCK
 10
4829.019581381733
 20
-22.02953135472785
 30
0.0
  0
VERTEX
  5
4E8
  8
0
  6
BYBLOCK
 10
4823.429581381733
 20
-56.7595313547281
 30
0.0
  0
VERTEX
  5
4E9
  8
0
  6
BYBLOCK
 10
4819.499581381733
 20
-72.84953135472779
 30
0.0
  0
VERTEX
  5
4EA
  8
0
  6
BYBLOCK
 10
4809.884783456893
 20
-107.444207463921
 30
0.0
  0
SEQEND
  5
4DF
  8
0
  6
BYBLOCK
  0
POLYLINE
  5
388
  8
0
  6
BYBLOCK
 66
     1
 10
0.0
 20
0.0
 30
0.0
 40
9.0
 41
9.0
  0
VERTEX
  5
4EC
  8
0
  6
BYBLOCK
 10
4534.969581381733
 20
-204.3095313547278
 30
0.0
  0
VERTEX
  5
4ED
  8
0
  6
BYBLOCK
 10
4593.049581381732
 20
-197.6795313547279
 30
0.0
  0
VERTEX
  5
4EE
  8
0
  6
BYBLOCK
 10
4632.389581381733
 20
-189.4595313547279
 30
0.0
  0
VERTEX
  5
4EF
  8
0
  6
BYBLOCK
 10
4690.059581381733
 20
-172.819531354728
 30
0.0
  0
VERTEX
  5
4F0
  8
0
  6
BYBLOCK
 10
4781.269581381733
 20
-140.149531354728
 30
0.0
  0
SEQEND
  5
4EB
  8
0
  6
BYBLOCK
  0
POLYLINE
  5
389
  8
0
  6
BYBLOCK
 66
     1
 10
0.0
 20
0.0
 30
0.0
 40
9.0
 41
9.0
  0
VERTEX
  5
4F2
  8
0
  6
BYBLOCK
 10
4828.195257937788
 20
-123.0603126633146
 30
0.0
  0
VERTEX
  5
4F3
  8
0
  6
BYBLOCK
 10
4996.674581381732
 20
-63.14453135472786
 30
0.0
  0
VERTEX
  5
4F4
  8
0
  6
BYBLOCK
 10
5058.034581381733
 20
-38.18453135472805
 30
0.0
  0
VERTEX
  5
4F5
  8
0
  6
BYBLOCK
 10
5132.534581381731
 20
-2.074531354727924
 30
0.0
  0
VERTEX
  5
4F6
  8
0
  6
BYBLOCK
 10
5200.509581381733
 20
37.505468645272
 30
0.0
  0
VERTEX
  5
4F7
  8
0
  6
BYBLOCK
 10
5298.154581381733
 20
107.285468645272
 30
0.0
  0
VERTEX
  5
4F8
  8
0
  6
BYBLOCK
 10
5323.644581381733
 20
128.4354686452721
 30
0.0
  0
SEQEND
  5
4F1
  8
0
  6
BYBLOCK
  0
POLYLINE
  5
38A
  8
0
  6
BYBLOCK
 66
     1
 10
0.0
 20
0.0
 30
0.0
 40
9.0
 41
9.0
  0
VERTEX
  5
4FA
  8
0
  6
BYBLOCK
 10
4826.409581381733
 20
-144.139531354728
 30
0.0
  0
VERTEX
  5
4FB
  8
0
  6
BYBLOCK
 10
4842.979581381733
 20
-153.3095313547278
 30
0.0
  0
VERTEX
  5
4FC
  8
0
  6
BYBLOCK
 10
4863.604581381733
 20
-162.964531354728
 30
0.0
  0
VERTEX
  5
4FD
  8
0
  6
BYBLOCK
 10
4886.819581381733
 20
-171.794531354728
 30
0.0
  0
VERTEX
  5
4FE
  8
0
  6
BYBLOCK
 10
4922.579581381731
 20
-182.2145313547278
 30
0.0
  0
VERTEX
  5
4FF
  8
0
  6
BYBLOCK
 10
4977.359581381733
 20
-193.2795313547279
 30
0.0
  0
VERTEX
  5
500
  8
0
  6
BYBLOCK
 10
5030.075191286803
 20
-201.7062067278703
 30
0.0
  0
VERTEX
  5
501
  8
0
  6
BYBLOCK
 10
5126.185288372429
 20
-214.0507628687487
 30
0.0
  0
SEQEND
  5
4F9
  8
0
  6
BYBLOCK
  0
POLYLINE
  5
38B
  8
0
  6
BYBLOCK
 66
     1
 10
0.0
 20
0.0
 30
0.0
 40
9.0
 41
9.0
  0
VERTEX
  5
503
  8
0
  6
BYBLOCK
 10
4650.184581381733
 20
-83.15953135472796
 30
0.0
  0
VERTEX
  5
504
  8
0
  6
BYBLOCK
 10
4650.279581381733
 20
-641.2595313547281
 30
0.0
  0
SEQEND
  5
502
  8
0
  6
BYBLOCK
  0
POLYLINE
  5
38C
  8
0
  6
BYBLOCK
 66
     1
 10
0.0
 20
0.0
 30
0.0
 40
9.0
 41
9.0
  0
VERTEX
  5
506
  8
0
  6
BYBLOCK
 10
4640.959581381732
 20
-639.6345313547281
 30
0.0
  0
VERTEX
  5
507
  8
0
  6
BYBLOCK
 10
4640.864581381733
 20
-83.15953135472796
 30
0.0
  0
SEQEND
  5
505
  8
0
  6
BYBLOCK
  0
POLYLINE
  5
38D
  8
0
  6
BYBLOCK
 66
     1
 10
0.0
 20
0.0
 30
0.0
 40
9.0
 41
9.0
  0
VERTEX
  5
509
  8
0
  6
BYBLOCK
 10
4587.849581381733
 20
-482.4295313547279
 30
0.0
  0
VERTEX
  5
50A
  8
0
  6
BYBLOCK
 10
4758.989581381733
 20
-481.6345313547279
 30
0.0
  0
SEQEND
  5
508
  8
0
  6
BYBLOCK
  0
POLYLINE
  5
38E
  8
0
  6
BYBLOCK
 66
     1
 10
0.0
 20
0.0
 30
0.0
 40
9.0
 41
9.0
  0
VERTEX
  5
50C
  8
0
  6
BYBLOCK
 10
4587.844581381733
 20
-507.8845313547279
 30
0.0
  0
VERTEX
  5
50D
  8
0
  6
BYBLOCK
 10
4758.989581381733
 20
-507.0945313547279
 30
0.0
  0
SEQEND
  5
50B
  8
0
  6
BYBLOCK
  0
POLYLINE
  5
38F
  8
0
  6
BYBLOCK
 66
     1
 10
0.0
 20
0.0
 30
0.0
 40
9.0
 41
9.0
  0
VERTEX
  5
50F
  8
0
  6
BYBLOCK
 10
4587.789581381732
 20
-532.659531354728
 30
0.0
  0
VERTEX
  5
510
  8
0
  6
BYBLOCK
 10
4758.929581381733
 20
-531.8645313547281
 30
0.0
  0
SEQEND
  5
50E
  8
0
  6
BYBLOCK
  0
POLYLINE
  5
390
  8
0
  6
BYBLOCK
 66
     1
 10
0.0
 20
0.0
 30
0.0
 40
9.0
 41
9.0
  0
VERTEX
  5
512
  8
0
  6
BYBLOCK
 10
4587.979581381733
 20
-557.6045313547279
 30
0.0
  0
VERTEX
  5
513
  8
0
  6
BYBLOCK
 10
4759.119581381732
 20
-556.8145313547279
 30
0.0
  0
SEQEND
  5
511
  8
0
  6
BYBLOCK
  0
POLYLINE
  5
391
  8
0
  6
BYBLOCK
 66
     1
 10
0.0
 20
0.0
 30
0.0
 40
9.0
 41
9.0
  0
VERTEX
  5
515
  8
0
  6
BYBLOCK
 10
4587.979581381733
 20
-582.0295313547281
 30
0.0
  0
VERTEX
  5
516
  8
0
  6
BYBLOCK
 10
4759.119581381732
 20
-581.234531354728
 30
0.0
  0
SEQEND
  5
514
  8
0
  6
BYBLOCK
  0
ARC
  5
392
  8
0
  6
BYBLOCK
 10
4173.697814074128
 20
-484.4091565133701
 30
0.0
 40
61.2183154210717
 50
87.38620741353694
 51
269.7033622417258
  0
ARC
  5
393
  8
0
  6
BYBLOCK
 10
4173.707941906637
 20
-484.4094137983839
 30
0.0
 40
61.21811141212046
 50
269.6938821942256
 51
87.39568746103709
  0
POLYLINE
  5
394
  8
0
  6
BYBLOCK
 66
     1
 10
0.0
 20
0.0
 30
0.0
 40
9.0
 41
9.0
  0
VERTEX
  5
518
  8
0
  6
BYBLOCK
 10
3883.509581381733
 20
-401.5300144465155
 30
0.0
  0
VERTEX
  5
519
  8
0
  6
BYBLOCK
 10
3914.669581381733
 20
-401.379531354728
 30
0.0
  0
VERTEX
  5
51A
  8
0
  6
BYBLOCK
 10
3948.679581381733
 20
-403.9895313547279
 30
0.0
  0
VERTEX
  5
51B
  8
0
  6
BYBLOCK
 10
3992.189581381733
 20
-411.034531354728
 30
0.0
  0
VERTEX
  5
51C
  8
0
  6
BYBLOCK
 10
4033.944581381733
 20
-419.1645313547281
 30
0.0
  0
VERTEX
  5
51D
  8
0
  6
BYBLOCK
 10
4061.699581381733
 20
-427.484531354728
 30
0.0
  0
VERTEX
  5
51E
  8
0
  6
BYBLOCK
 10
4086.779581381733
 20
-437.2395313547279
 30
0.0
  0
VERTEX
  5
51F
  8
0
  6
BYBLOCK
 10
4120.519881157758
 20
-454.0803448746092
 30
0.0
  0
SEQEND
  5
517
  8
0
  6
BYBLOCK
  0
POLYLINE
  5
395
  8
0
  6
BYBLOCK
 66
     1
 10
0.0
 20
0.0
 30
0.0
 40
9.0
 41
9.0
  0
VERTEX
  5
521
  8
0
  6
BYBLOCK
 10
4226.548196009927
 20
-453.4972040558491
 30
0.0
  0
VERTEX
  5
522
  8
0
  6
BYBLOCK
 10
4252.089581381732
 20
-440.349531354728
 30
0.0
  0
VERTEX
  5
523
  8
0
  6
BYBLOCK
 10
4284.649581381733
 20
-427.0195313547279
 30
0.0
  0
VERTEX
  5
524
  8
0
  6
BYBLOCK
 10
4310.309581381733
 20
-418.9295313547279
 30
0.0
  0
VERTEX
  5
525
  8
0
  6
BYBLOCK
 10
4332.444581381733
 20
-413.5745313547279
 30
0.0
  0
VERTEX
  5
526
  8
0
  6
BYBLOCK
 10
4352.626270901325
 20
-409.6540468680241
 30
0.0
  0
VERTEX
  5
527
  8
0
  6
BYBLOCK
 10
4380.859581381733
 20
-404.3895313547278
 30
0.0
  0
VERTEX
  5
528
  8
0
  6
BYBLOCK
 10
4396.299112410788
 20
-401.5060678541547
 30
0.0
  0
VERTEX
  5
529
  8
0
  6
BYBLOCK
 10
4409.819581381733
 20
-398.9895313547279
 30
0.0
  0
SEQEND
  5
520
  8
0
  6
BYBLOCK
  0
ARC
  5
396
  8
0
  6
BYBLOCK
 10
4173.664378358775
 20
-480.1494346461641
 30
0.0
 40
280.1842812506155
 50
177.6067534978913
 51
2.534477407037731
  0
ARC
  5
397
  8
0
  6
BYBLOCK
 10
4173.846634289452
 20
-484.3390163728861
 30
0.0
 40
174.9933027408653
 50
174.9612772848706
 51
5.2096627822378
  0
LINE
  5
398
  8
0
  6
BYBLOCK
 10
3999.529581381733
 20
-468.9695313547279
 30
0.0
 11
3893.724485305115
 21
-468.4495313547279
 31
0.0
  0
LINE
  5
399
  8
0
  6
BYBLOCK
 10
4348.117057109888
 20
-468.4495313547279
 30
0.0
 11
4453.574581381733
 21
-467.7595313547279
 31
0.0
  0
POLYLINE
  5
39A
  8
0
  6
BYBLOCK
 66
     1
 10
0.0
 20
0.0
 30
0.0
 40
9.0
 41
9.0
  0
VERTEX
  5
52B
  8
0
  6
BYBLOCK
 10
4120.519881157758
 20
-454.0803448746092
 30
0.0
  0
VERTEX
  5
52C
  8
0
  6
BYBLOCK
 10
4226.922686895568
 20
-514.6851886612178
 30
0.0
  0
SEQEND
  5
52A
  8
0
  6
BYBLOCK
  0
POLYLINE
  5
39B
  8
0
  6
BYBLOCK
 66
     1
 10
0.0
 20
0.0
 30
0.0
 40
9.0
 41
9.0
  0
VERTEX
  5
52E
  8
0
  6
BYBLOCK
 10
3897.409581381733
 20
-460.0095313547279
 30
0.0
  0
VERTEX
  5
52F
  8
0
  6
BYBLOCK
 10
3971.939581381733
 20
-459.599531354728
 30
0.0
  0
VERTEX
  5
530
  8
0
  6
BYBLOCK
 10
4007.129581381733
 20
-459.399531354728
 30
0.0
  0
VERTEX
  5
531
  8
0
  6
BYBLOCK
 10
4029.939581381733
 20
-460.0295313547281
 30
0.0
  0
VERTEX
  5
532
  8
0
  6
BYBLOCK
 10
4046.419581381733
 20
-461.599531354728
 30
0.0
  0
VERTEX
  5
533
  8
0
  6
BYBLOCK
 10
4064.859581381733
 20
-464.2695313547279
 30
0.0
  0
VERTEX
  5
534
  8
0
  6
BYBLOCK
 10
4094.513042295777
 20
-469.7274512864465
 30
0.0
  0
VERTEX
  5
535
  8
0
  6
BYBLOCK
 10
4113.480759478012
 20
-473.4040785621319
 30
0.0
  0
SEQEND
  5
52D
  8
0
  6
BYBLOCK
  0
POLYLINE
  5
39C
  8
0
  6
BYBLOCK
 66
     1
 10
0.0
 20
0.0
 30
0.0
 40
9.0
 41
9.0
  0
VERTEX
  5
537
  8
0
  6
BYBLOCK
 10
4233.774581381733
 20
-473.1645313547278
 30
0.0
  0
VERTEX
  5
538
  8
0
  6
BYBLOCK
 10
4286.539581381732
 20
-462.514531354728
 30
0.0
  0
VERTEX
  5
539
  8
0
  6
BYBLOCK
 10
4305.404660154679
 20
-459.6875513520481
 30
0.0
  0
VERTEX
  5
53A
  8
0
  6
BYBLOCK
 10
4315.254581381732
 20
-458.649531354728
 30
0.0
  0
VERTEX
  5
53B
  8
0
  6
BYBLOCK
 10
4331.789581381732
 20
-457.6895313547279
 30
0.0
  0
VERTEX
  5
53C
  8
0
  6
BYBLOCK
 10
4354.559581381733
 20
-457.4895313547281
 30
0.0
  0
VERTEX
  5
53D
  8
0
  6
BYBLOCK
 10
4449.809581381733
 20
-456.9595313547279
 30
0.0
  0
SEQEND
  5
536
  8
0
  6
BYBLOCK
  0
POLYLINE
  5
39D
  8
0
  6
BYBLOCK
 66
     1
 10
0.0
 20
0.0
 30
0.0
 40
9.0
 41
9.0
  0
VERTEX
  5
53F
  8
0
  6
BYBLOCK
 10
4001.703242389209
 20
-515.7515054342362
 30
0.0
  0
VERTEX
  5
540
  8
0
  6
BYBLOCK
 10
4112.999581381733
 20
-495.4795313547279
 30
0.0
  0
SEQEND
  5
53E
  8
0
  6
BYBLOCK
  0
POLYLINE
  5
39E
  8
0
  6
BYBLOCK
 66
     1
 10
0.0
 20
0.0
 30
0.0
 40
9.0
 41
9.0
  0
VERTEX
  5
542
  8
0
  6
BYBLOCK
 10
4009.70306810781
 20
-544.9989421747562
 30
0.0
  0
VERTEX
  5
543
  8
0
  6
BYBLOCK
 10
4115.829581381733
 20
-505.8095313547281
 30
0.0
  0
SEQEND
  5
541
  8
0
  6
BYBLOCK
  0
POLYLINE
  5
39F
  8
0
  6
BYBLOCK
 66
     1
 10
0.0
 20
0.0
 30
0.0
 40
9.0
 41
9.0
  0
VERTEX
  5
545
  8
0
  6
BYBLOCK
 10
4022.725341658982
 20
-572.5833752152164
 30
0.0
  0
VERTEX
  5
546
  8
0
  6
BYBLOCK
 10
4120.429581381733
 20
-515.5495313547281
 30
0.0
  0
SEQEND
  5
544
  8
0
  6
BYBLOCK
  0
POLYLINE
  5
3A0
  8
0
  6
BYBLOCK
 66
     1
 10
0.0
 20
0.0
 30
0.0
 40
9.0
 41
9.0
  0
VERTEX
  5
548
  8
0
  6
BYBLOCK
 10
4040.349558236831
 20
-597.4829369866538
 30
0.0
  0
VERTEX
  5
549
  8
0
  6
BYBLOCK
 10
4126.649581381733
 20
-524.349531354728
 30
0.0
  0
SEQEND
  5
547
  8
0
  6
BYBLOCK
  0
POLYLINE
  5
3A1
  8
0
  6
BYBLOCK
 66
     1
 10
0.0
 20
0.0
 30
0.0
 40
9.0
 41
9.0
  0
VERTEX
  5
54B
  8
0
  6
BYBLOCK
 10
4062.021434949851
 20
-618.9473070729857
 30
0.0
  0
VERTEX
  5
54C
  8
0
  6
BYBLOCK
 10
4134.769581381733
 20
-531.6395313547278
 30
0.0
  0
SEQEND
  5
54A
  8
0
  6
BYBLOCK
  0
POLYLINE
  5
3A2
  8
0
  6
BYBLOCK
 66
     1
 10
0.0
 20
0.0
 30
0.0
 40
9.0
 41
9.0
  0
VERTEX
  5
54E
  8
0
  6
BYBLOCK
 10
4086.940705378745
 20
-636.2271841948843
 30
0.0
  0
VERTEX
  5
54F
  8
0
  6
BYBLOCK
 10
4143.392205753658
 20
-537.6247403814537
 30
0.0
  0
SEQEND
  5
54D
  8
0
  6
BYBLOCK
  0
POLYLINE
  5
3A3
  8
0
  6
BYBLOCK
 66
     1
 10
0.0
 20
0.0
 30
0.0
 40
9.0
 41
9.0
  0
VERTEX
  5
551
  8
0
  6
BYBLOCK
 10
4153.123240103103
 20
-542.0579106309094
 30
0.0
  0
VERTEX
  5
552
  8
0
  6
BYBLOCK
 10
4114.799734918202
 20
-649.0694618855405
 30
0.0
  0
SEQEND
  5
550
  8
0
  6
BYBLOCK
  0
POLYLINE
  5
3A4
  8
0
  6
BYBLOCK
 66
     1
 10
0.0
 20
0.0
 30
0.0
 40
9.0
 41
9.0
  0
VERTEX
  5
554
  8
0
  6
BYBLOCK
 10
4144.274930218942
 20
-656.8279034477512
 30
0.0
  0
VERTEX
  5
555
  8
0
  6
BYBLOCK
 10
4163.440934791541
 20
-544.7670714804201
 30
0.0
  0
SEQEND
  5
553
  8
0
  6
BYBLOCK
  0
POLYLINE
  5
3A5
  8
0
  6
BYBLOCK
 66
     1
 10
0.0
 20
0.0
 30
0.0
 40
9.0
 41
9.0
  0
VERTEX
  5
557
  8
0
  6
BYBLOCK
 10
4174.09696060033
 20
-545.6370296042728
 30
0.0
  0
VERTEX
  5
558
  8
0
  6
BYBLOCK
 10
4174.706138754956
 20
-659.3369076119916
 30
0.0
  0
SEQEND
  5
556
  8
0
  6
BYBLOCK
  0
POLYLINE
  5
3A6
  8
0
  6
BYBLOCK
 66
     1
 10
0.0
 20
0.0
 30
0.0
 40
9.0
 41
9.0
  0
VERTEX
  5
55A
  8
0
  6
BYBLOCK
 10
4205.083519205567
 20
-656.5211893858159
 30
0.0
  0
VERTEX
  5
55B
  8
0
  6
BYBLOCK
 10
4184.575841432815
 20
-544.6551267143723
 30
0.0
  0
SEQEND
  5
559
  8
0
  6
BYBLOCK
  0
POLYLINE
  5
3A7
  8
0
  6
BYBLOCK
 66
     1
 10
0.0
 20
0.0
 30
0.0
 40
9.0
 41
9.0
  0
VERTEX
  5
55D
  8
0
  6
BYBLOCK
 10
4195.018780168526
 20
-541.7984836413634
 30
0.0
  0
VERTEX
  5
55E
  8
0
  6
BYBLOCK
 10
4234.513078420361
 20
-648.4856448826906
 30
0.0
  0
SEQEND
  5
55C
  8
0
  6
BYBLOCK
  0
POLYLINE
  5
3A8
  8
0
  6
BYBLOCK
 66
     1
 10
0.0
 20
0.0
 30
0.0
 40
9.0
 41
9.0
  0
VERTEX
  5
560
  8
0
  6
BYBLOCK
 10
4262.284581381733
 20
-635.3445313547279
 30
0.0
  0
VERTEX
  5
561
  8
0
  6
BYBLOCK
 10
4204.519581381733
 20
-537.3095313547281
 30
0.0
  0
SEQEND
  5
55F
  8
0
  6
BYBLOCK
  0
POLYLINE
  5
3A9
  8
0
  6
BYBLOCK
 66
     1
 10
0.0
 20
0.0
 30
0.0
 40
9.0
 41
9.0
  0
VERTEX
  5
563
  8
0
  6
BYBLOCK
 10
4213.371188745992
 20
-531.0665325477942
 30
0.0
  0
VERTEX
  5
564
  8
0
  6
BYBLOCK
 10
4287.016318093723
 20
-617.8222507614028
 30
0.0
  0
SEQEND
  5
562
  8
0
  6
BYBLOCK
  0
POLYLINE
  5
3AA
  8
0
  6
BYBLOCK
 66
     1
 10
0.0
 20
0.0
 30
0.0
 40
9.0
 41
9.0
  0
VERTEX
  5
566
  8
0
  6
BYBLOCK
 10
4308.480646671625
 20
-596.1290336636043
 30
0.0
  0
VERTEX
  5
567
  8
0
  6
BYBLOCK
 10
4220.856270438548
 20
-523.4631977415177
 30
0.0
  0
SEQEND
  5
565
  8
0
  6
BYBLOCK
  0
POLYLINE
  5
3AB
  8
0
  6
BYBLOCK
 66
     1
 10
0.0
 20
0.0
 30
0.0
 40
9.0
 41
9.0
  0
VERTEX
  5
569
  8
0
  6
BYBLOCK
 10
4226.922686895568
 20
-514.6851886612178
 30
0.0
  0
VERTEX
  5
56A
  8
0
  6
BYBLOCK
 10
4325.857322754018
 20
-571.0314396361689
 30
0.0
  0
SEQEND
  5
568
  8
0
  6
BYBLOCK
  0
POLYLINE
  5
3AC
  8
0
  6
BYBLOCK
 66
     1
 10
0.0
 20
0.0
 30
0.0
 40
9.0
 41
9.0
  0
VERTEX
  5
56C
  8
0
  6
BYBLOCK
 10
4338.659581381733
 20
-543.1995313547279
 30
0.0
  0
VERTEX
  5
56D
  8
0
  6
BYBLOCK
 10
4231.355239445496
 20
-505.0546393776172
 30
0.0
  0
SEQEND
  5
56B
  8
0
  6
BYBLOCK
  0
POLYLINE
  5
3AD
  8
0
  6
BYBLOCK
 66
     1
 10
0.0
 20
0.0
 30
0.0
 40
9.0
 41
9.0
  0
VERTEX
  5
56F
  8
0
  6
BYBLOCK
 10
3696.994581381733
 20
-403.504531354728
 30
0.0
  0
VERTEX
  5
570
  8
0
  6
BYBLOCK
 10
3638.399581381733
 20
-410.7795313547281
 30
0.0
  0
VERTEX
  5
571
  8
0
  6
BYBLOCK
 10
3612.169581381733
 20
-412.9795313547279
 30
0.0
  0
VERTEX
  5
572
  8
0
  6
BYBLOCK
 10
3560.244581381733
 20
-420.3845313547281
 30
0.0
  0
VERTEX
  5
573
  8
0
  6
BYBLOCK
 10
3478.599581381733
 20
-443.2395313547279
 30
0.0
  0
VERTEX
  5
574
  8
0
  6
BYBLOCK
 10
3421.739581381733
 20
-468.149531354728
 30
0.0
  0
VERTEX
  5
575
  8
0
  6
BYBLOCK
 10
3368.589581381732
 20
-498.8345313547279
 30
0.0
  0
VERTEX
  5
576
  8
0
  6
BYBLOCK
 10
3311.789581381733
 20
-540.349531354728
 30
0.0
  0
VERTEX
  5
577
  8
0
  6
BYBLOCK
 10
3265.484581381732
 20
-581.7145313547278
 30
0.0
  0
VERTEX
  5
578
  8
0
  6
BYBLOCK
 10
3244.02208477293
 20
-603.4292830422833
 30
0.0
  0
SEQEND
  5
56E
  8
0
  6
BYBLOCK
  0
POLYLINE
  5
3AE
  8
0
  6
BYBLOCK
 66
     1
 10
0.0
 20
0.0
 30
0.0
 40
9.0
 41
9.0
  0
VERTEX
  5
57A
  8
0
  6
BYBLOCK
 10
4650.239581381733
 20
-397.849531354728
 30
0.0
 42
0.0278868997284614
  0
VERTEX
  5
57B
  8
0
  6
BYBLOCK
 10
4770.744581381732
 20
-391.5095313547279
 30
0.0
 42
0.0158195186331663
  0
VERTEX
  5
57C
  8
0
  6
BYBLOCK
 10
4800.734581381733
 20
-387.284531354728
 30
0.0
 42
-0.0064751967214678
  0
VERTEX
  5
57D
  8
0
  6
BYBLOCK
 10
4860.019581381733
 20
-377.7995313547281
 30
0.0
 42
0.0166765602461493
  0
VERTEX
  5
57E
  8
0
  6
BYBLOCK
 10
4923.174581381732
 20
-366.369531354728
 30
0.0
 42
-0.0063078520562676
  0
VERTEX
  5
57F
  8
0
  6
BYBLOCK
 10
4984.044581381733
 20
-354.044531354728
 30
0.0
 42
0.0122483358641378
  0
VERTEX
  5
580
  8
0
  6
BYBLOCK
 10
5044.939581381733
 20
-340.9595313547279
 30
0.0
 42
-0.0213098928012584
  0
VERTEX
  5
581
  8
0
  6
BYBLOCK
 10
5134.329581381733
 20
-323.4395313547279
 30
0.0
 42
0.0128262494199153
  0
VERTEX
  5
582
  8
0
  6
BYBLOCK
 10
5185.159581381733
 20
-314.369531354728
 30
0.0
 42
-0.0111653255059826
  0
VERTEX
  5
583
  8
0
  6
BYBLOCK
 10
5203.744581381732
 20
-310.9895313547279
 30
0.0
 42
0.0153370153322869
  0
VERTEX
  5
584
  8
0
  6
BYBLOCK
 10
5246.999581381733
 20
-302.7495313547279
 30
0.0
 42
32.83992290071934
  0
SEQEND
  5
579
  8
0
  6
BYBLOCK
  0
POLYLINE
  5
3AF
  8
0
  6
BYBLOCK
 66
     1
 10
0.0
 20
0.0
 30
0.0
 40
9.0
 41
9.0
  0
VERTEX
  5
586
  8
0
  6
BYBLOCK
 10
3857.029581381733
 20
-641.2795313547281
 30
0.0
 42
0.1295721303994491
  0
VERTEX
  5
587
  8
0
  6
BYBLOCK
 10
4010.859581381733
 20
-763.629531354728
 30
0.0
 42
0.0325408338950133
  0
VERTEX
  5
588
  8
0
  6
BYBLOCK
 10
4086.494581381733
 20
-791.1645313547278
 30
0.0
 42
0.0246057506891705
  0
VERTEX
  5
589
  8
0
  6
BYBLOCK
 10
4152.459581381732
 20
-806.9495313547279
 30
0.0
 42
0.0605795885276178
  0
VERTEX
  5
58A
  8
0
  6
BYBLOCK
 10
4258.089581381732
 20
-813.7895313547278
 30
0.0
 42
0.0219865505008779
  0
VERTEX
  5
58B
  8
0
  6
BYBLOCK
 10
4388.639581381733
 20
-800.649531354728
 30
0.0
 42
0.0611493762918107
  0
VERTEX
  5
58C
  8
0
  6
BYBLOCK
 10
4631.939581381733
 20
-734.2495313547279
 30
0.0
 42
0.0095417083341028
  0
VERTEX
  5
58D
  8
0
  6
BYBLOCK
 10
4744.039581381732
 20
-685.8395313547278
 30
0.0
 42
0.0216469809972486
  0
VERTEX
  5
58E
  8
0
  6
BYBLOCK
 10
4782.799581381732
 20
-666.149531354728
 30
0.0
 42
-0.0005856491009173
  0
VERTEX
  5
58F
  8
0
  6
BYBLOCK
 10
4830.649581381733
 20
-639.2495313547279
 30
0.0
 42
0.0559099440553752
  0
VERTEX
  5
590
  8
0
  6
BYBLOCK
 10
4889.469581381733
 20
-597.0195313547279
 30
0.0
 42
0.0002183614812673
  0
VERTEX
  5
591
  8
0
  6
BYBLOCK
 10
4925.474581381733
 20
-564.484531354728
 30
0.0
 42
0.0186184544523219
  0
VERTEX
  5
592
  8
0
  6
BYBLOCK
 10
4946.649581381733
 20
-543.8495313547278
 30
0.0
 42
-0.0114924055594638
  0
VERTEX
  5
593
  8
0
  6
BYBLOCK
 10
4968.94348104514
 20
-521.4960740699064
 30
0.0
 42
2.936560944805522
  0
SEQEND
  5
585
  8
0
  6
BYBLOCK
  0
POLYLINE
  5
3B0
  8
0
  6
BYBLOCK
 66
     1
 10
0.0
 20
0.0
 30
0.0
 40
9.0
 41
9.0
  0
VERTEX
  5
595
  8
0
  6
BYBLOCK
 10
4007.619581381733
 20
-762.1895313547279
 30
0.0
  0
VERTEX
  5
596
  8
0
  6
BYBLOCK
 10
4120.314581381733
 20
-793.504531354728
 30
0.0
  0
VERTEX
  5
597
  8
0
  6
BYBLOCK
 10
4157.469581381733
 20
-796.1245313547279
 30
0.0
 42
0.0286761556663084
  0
VERTEX
  5
598
  8
0
  6
BYBLOCK
 10
4304.784581381733
 20
-786.9545313547278
 30
0.0
 42
0.0130333013903177
  0
VERTEX
  5
599
  8
0
  6
BYBLOCK
 10
4378.519581381733
 20
-776.1445313547279
 30
0.0
 42
0.0192016551647526
  0
VERTEX
  5
59A
  8
0
  6
BYBLOCK
 10
4477.709581381732
 20
-754.9995313547279
 30
0.0
 42
0.0267326369488763
  0
VERTEX
  5
59B
  8
0
  6
BYBLOCK
 10
4619.969581381733
 20
-710.6995313547279
 30
0.0
 42
0.0142678622606651
  0
VERTEX
  5
59C
  8
0
  6
BYBLOCK
 10
4689.069581381733
 20
-682.7895313547278
 30
0.0
 42
0.0149245404964902
  0
VERTEX
  5
59D
  8
0
  6
BYBLOCK
 10
4765.769581381733
 20
-646.4695313547279
 30
0.0
 42
0.0143081582915553
  0
VERTEX
  5
59E
  8
0
  6
BYBLOCK
 10
4831.144581381733
 20
-610.694531354728
 30
0.0
 42
0.0145061989959574
  0
VERTEX
  5
59F
  8
0
  6
BYBLOCK
 10
4901.369581381732
 20
-566.8295313547278
 30
0.0
 42
0.0017860403071505
  0
VERTEX
  5
5A0
  8
0
  6
BYBLOCK
 10
4968.974400150353
 20
-521.4742756446981
 30
0.0
 42
5.669984367947454
  0
SEQEND
  5
594
  8
0
  6
BYBLOCK
  0
POLYLINE
  5
3B1
  8
0
  6
BYBLOCK
 66
     1
 10
0.0
 20
0.0
 30
0.0
 40
9.0
 41
9.0
  0
VERTEX
  5
5A2
  8
0
  6
BYBLOCK
 10
4968.94348104514
 20
-521.4960740699064
 30
0.0
  0
VERTEX
  5
5A3
  8
0
  6
BYBLOCK
 10
5040.109581381733
 20
-469.129531354728
 30
0.0
  0
VERTEX
  5
5A4
  8
0
  6
BYBLOCK
 10
5094.069581381733
 20
-426.5295313547281
 30
0.0
  0
VERTEX
  5
5A5
  8
0
  6
BYBLOCK
 10
5153.809581381733
 20
-385.5395313547281
 30
0.0
  0
VERTEX
  5
5A6
  8
0
  6
BYBLOCK
 10
5202.9953152898
 20
-356.2360555275743
 30
0.0
  0
VERTEX
  5
5A7
  8
0
  6
BYBLOCK
 10
5219.734581381733
 20
-347.139531354728
 30
0.0
  0
VERTEX
  5
5A8
  8
0
  6
BYBLOCK
 10
5258.88902836718
 20
-327.5677558869525
 30
0.0
  0
SEQEND
  5
5A1
  8
0
  6
BYBLOCK
  0
POLYLINE
  5
3B2
  8
0
  6
BYBLOCK
 66
     1
 10
0.0
 20
0.0
 30
0.0
 40
9.0
 41
9.0
  0
VERTEX
  5
5AA
  8
0
  6
BYBLOCK
 10
5384.869380700027
 20
-295.4163706178738
 30
0.0
  0
VERTEX
  5
5AB
  8
0
  6
BYBLOCK
 10
5341.904581381733
 20
-305.7495313547279
 30
0.0
  0
VERTEX
  5
5AC
  8
0
  6
BYBLOCK
 10
5311.652683687322
 20
-313.0360551174026
 30
0.0
  0
VERTEX
  5
5AD
  8
0
  6
BYBLOCK
 10
5280.574581381732
 20
-321.1995313547279
 30
0.0
  0
VERTEX
  5
5AE
  8
0
  6
BYBLOCK
 10
5258.889581381733
 20
-327.569531354728
 30
0.0
  0
VERTEX
  5
5AF
  8
0
  6
BYBLOCK
 10
5207.749581381733
 20
-344.899531354728
 30
0.0
  0
VERTEX
  5
5B0
  8
0
  6
BYBLOCK
 10
5168.439581381733
 20
-360.4895313547279
 30
0.0
  0
VERTEX
  5
5B1
  8
0
  6
BYBLOCK
 10
5070.909581381733
 20
-400.9295313547279
 30
0.0
  0
VERTEX
  5
5B2
  8
0
  6
BYBLOCK
 10
4933.825955212415
 20
-457.7752570329319
 30
0.0
  0
SEQEND
  5
5A9
  8
0
  6
BYBLOCK
  0
POLYLINE
  5
3B3
  8
0
  6
BYBLOCK
 66
     1
 10
0.0
 20
0.0
 30
0.0
 40
9.0
 41
9.0
  0
VERTEX
  5
5B4
  8
0
  6
BYBLOCK
 10
4933.825955212415
 20
-457.7752570329319
 30
0.0
  0
VERTEX
  5
5B5
  8
0
  6
BYBLOCK
 10
4806.193191553178
 20
-510.4905932074223
 30
0.0
  0
SEQEND
  5
5B3
  8
0
  6
BYBLOCK
  0
POLYLINE
  5
3B4
  8
0
  6
BYBLOCK
 66
     1
 10
0.0
 20
0.0
 30
0.0
 40
9.0
 41
9.0
  0
VERTEX
  5
5B7
  8
0
  6
BYBLOCK
 10
6440.029581381732
 20
-184.3145313547279
 30
0.0
  0
VERTEX
  5
5B8
  8
0
  6
BYBLOCK
 10
6375.519581381732
 20
-195.0645313547279
 30
0.0
  0
VERTEX
  5
5B9
  8
0
  6
BYBLOCK
 10
6321.999581381733
 20
-207.9695313547279
 30
0.0
  0
VERTEX
  5
5BA
  8
0
  6
BYBLOCK
 10
6265.339581381733
 20
-220.1995313547279
 30
0.0
  0
VERTEX
  5
5BB
  8
0
  6
BYBLOCK
 10
6190.469581381733
 20
-236.409531354728
 30
0.0
  0
VERTEX
  5
5BC
  8
0
  6
BYBLOCK
 10
6135.404581381732
 20
-245.974531354728
 30
0.0
  0
VERTEX
  5
5BD
  8
0
  6
BYBLOCK
 10
6092.239581381733
 20
-251.129531354728
 30
0.0
  0
VERTEX
  5
5BE
  8
0
  6
BYBLOCK
 10
5972.484581381732
 20
-259.619531354728
 30
0.0
  0
VERTEX
  5
5BF
  8
0
  6
BYBLOCK
 10
5807.209581381732
 20
-270.4295313547279
 30
0.0
  0
VERTEX
  5
5C0
  8
0
  6
BYBLOCK
 10
5588.164581381732
 20
-283.8495313547278
 30
0.0
  0
VERTEX
  5
5C1
  8
0
  6
BYBLOCK
 10
5451.749581381733
 20
-291.6795313547279
 30
0.0
  0
VERTEX
  5
5C2
  8
0
  6
BYBLOCK
 10
5384.869581381732
 20
-295.419531354728
 30
0.0
  0
VERTEX
  5
5C3
  8
0
  6
BYBLOCK
 10
5247.409581381733
 20
-302.7295313547279
 30
0.0
  0
VERTEX
  5
5C4
  8
0
  6
BYBLOCK
 10
5141.869581381732
 20
-305.6645313547281
 30
0.0
  0
VERTEX
  5
5C5
  8
0
  6
BYBLOCK
 10
4956.136085377531
 20
-313.0325825449816
 30
0.0
  0
VERTEX
  5
5C6
  8
0
  6
BYBLOCK
 10
4888.12600360792
 20
-315.9765915800558
 30
0.0
  0
VERTEX
  5
5C7
  8
0
  6
BYBLOCK
 10
4837.309581381733
 20
-316.9545313547278
 30
0.0
  0
VERTEX
  5
5C8
  8
0
  6
BYBLOCK
 10
4690.819581381733
 20
-317.649531354728
 30
0.0
  0
VERTEX
  5
5C9
  8
0
  6
BYBLOCK
 10
4626.649581381733
 20
-317.9495313547279
 30
0.0
  0
VERTEX
  5
5CA
  8
0
  6
BYBLOCK
 10
3655.674643345508
 20
-322.4424007541561
 30
0.0
  0
VERTEX
  5
5CB
  8
0
  6
BYBLOCK
 10
3619.374581381733
 20
-321.8445313547279
 30
0.0
  0
VERTEX
  5
5CC
  8
0
  6
BYBLOCK
 10
3563.579581381733
 20
-318.569531354728
 30
0.0
  0
VERTEX
  5
5CD
  8
0
  6
BYBLOCK
 10
3522.329581381733
 20
-314.9395313547279
 30
0.0
  0
VERTEX
  5
5CE
  8
0
  6
BYBLOCK
 10
3446.099581381733
 20
-307.379531354728
 30
0.0
  0
VERTEX
  5
5CF
  8
0
  6
BYBLOCK
 10
3389.959581381733
 20
-301.4295313547279
 30
0.0
  0
VERTEX
  5
5D0
  8
0
  6
BYBLOCK
 10
3318.196789390629
 20
-293.3933726598816
 30
0.0
  0
SEQEND
  5
5B6
  8
0
  6
BYBLOCK
  0
POLYLINE
  5
3B5
  8
0
  6
BYBLOCK
 66
     1
 10
0.0
 20
0.0
 30
0.0
 40
9.0
 41
9.0
  0
VERTEX
  5
5D2
  8
0
  6
BYBLOCK
 10
3883.609581381733
 20
-401.5295313547281
 30
0.0
  0
VERTEX
  5
5D3
  8
0
  6
BYBLOCK
 10
3696.994581381733
 20
-403.504531354728
 30
0.0
  0
VERTEX
  5
5D4
  8
0
  6
BYBLOCK
 10
3658.549581381732
 20
-402.3245313547279
 30
0.0
  0
VERTEX
  5
5D5
  8
0
  6
BYBLOCK
 10
3626.554503485226
 20
-400.1735078041766
 30
0.0
  0
VERTEX
  5
5D6
  8
0
  6
BYBLOCK
 10
3606.473445801779
 20
-398.1138650735682
 30
0.0
  0
VERTEX
  5
5D7
  8
0
  6
BYBLOCK
 10
3593.424581381732
 20
-396.4845313547278
 30
0.0
  0
VERTEX
  5
5D8
  8
0
  6
BYBLOCK
 10
3551.330028446381
 20
-389.7625621405969
 30
0.0
  0
VERTEX
  5
5D9
  8
0
  6
BYBLOCK
 10
3465.579581381733
 20
-370.9695313547279
 30
0.0
  0
VERTEX
  5
5DA
  8
0
  6
BYBLOCK
 10
3425.439581381733
 20
-360.8095313547281
 30
0.0
  0
VERTEX
  5
5DB
  8
0
  6
BYBLOCK
 10
3363.274581381732
 20
-344.8495313547278
 30
0.0
  0
VERTEX
  5
5DC
  8
0
  6
BYBLOCK
 10
3332.723991157216
 20
-336.3763972321181
 30
0.0
  0
VERTEX
  5
5DD
  8
0
  6
BYBLOCK
 10
3275.630602937969
 20
-320.4804922387939
 30
0.0
  0
VERTEX
  5
5DE
  8
0
  6
BYBLOCK
 10
3234.784581381733
 20
-309.1145313547279
 30
0.0
  0
VERTEX
  5
5DF
  8
0
  6
BYBLOCK
 10
3168.389581381733
 20
-290.819531354728
 30
0.0
  0
VERTEX
  5
5E0
  8
0
  6
BYBLOCK
 10
3096.399581381733
 20
-272.5845313547279
 30
0.0
  0
VERTEX
  5
5E1
  8
0
  6
BYBLOCK
 10
3022.729581381733
 20
-255.9545313547278
 30
0.0
  0
SEQEND
  5
5D1
  8
0
  6
BYBLOCK
  0
POLYLINE
  5
3B6
  8
0
  6
BYBLOCK
 66
     1
 10
0.0
 20
0.0
 30
0.0
 40
9.0
 41
9.0
  0
VERTEX
  5
5E3
  8
0
  6
BYBLOCK
 10
3210.854581381733
 20
-302.444531354728
 30
0.0
  0
VERTEX
  5
5E4
  8
0
  6
BYBLOCK
 10
3310.847914606185
 20
-323.4888719519083
 30
0.0
  0
VERTEX
  5
5E5
  8
0
  6
BYBLOCK
 10
3371.979581381733
 20
-333.399531354728
 30
0.0
  0
VERTEX
  5
5E6
  8
0
  6
BYBLOCK
 10
3435.384581381733
 20
-343.389531354728
 30
0.0
  0
VERTEX
  5
5E7
  8
0
  6
BYBLOCK
 10
3591.074581381733
 20
-366.1145313547279
 30
0.0
  0
VERTEX
  5
5E8
  8
0
  6
BYBLOCK
 10
3626.459581381733
 20
-370.9695313547279
 30
0.0
  0
VERTEX
  5
5E9
  8
0
  6
BYBLOCK
 10
3679.971681222918
 20
-375.9754211756231
 30
0.0
  0
VERTEX
  5
5EA
  8
0
  6
BYBLOCK
 10
3777.709581381733
 20
-377.0095313547281
 30
0.0
  0
VERTEX
  5
5EB
  8
0
  6
BYBLOCK
 10
4075.829581381733
 20
-375.639531354728
 30
0.0
  0
VERTEX
  5
5EC
  8
0
  6
BYBLOCK
 10
4558.209581381732
 20
-373.409531354728
 30
0.0
  0
VERTEX
  5
5ED
  8
0
  6
BYBLOCK
 10
4800.869581381732
 20
-372.5645313547279
 30
0.0
  0
VERTEX
  5
5EE
  8
0
  6
BYBLOCK
 10
4825.109581381733
 20
-372.264531354728
 30
0.0
  0
VERTEX
  5
5EF
  8
0
  6
BYBLOCK
 10
4862.529581381733
 20
-370.8095313547281
 30
0.0
  0
VERTEX
  5
5F0
  8
0
  6
BYBLOCK
 10
4927.239581381733
 20
-365.5895313547278
 30
0.0
  0
SEQEND
  5
5E2
  8
0
  6
BYBLOCK
  0
POLYLINE
  5
3B7
  8
0
  6
BYBLOCK
 66
     1
 10
0.0
 20
0.0
 30
0.0
 40
9.0
 41
9.0
  0
VERTEX
  5
5F2
  8
0
  6
BYBLOCK
 10
4657.109581381733
 20
-397.7995313547281
 30
0.0
  0
VERTEX
  5
5F3
  8
0
  6
BYBLOCK
 10
3883.609581381733
 20
-401.5295313547281
 30
0.0
  0
SEQEND
  5
5F1
  8
0
  6
BYBLOCK
  0
POLYLINE
  5
3B8
  8
0
  6
BYBLOCK
 66
     1
 10
0.0
 20
0.0
 30
0.0
 40
9.0
 41
9.0
  0
VERTEX
  5
5F5
  8
0
  6
BYBLOCK
 10
3453.854581381733
 20
-346.2195313547279
 30
0.0
  0
VERTEX
  5
5F6
  8
0
  6
BYBLOCK
 10
3546.379581381732
 20
-352.9795313547279
 30
0.0
  0
VERTEX
  5
5F7
  8
0
  6
BYBLOCK
 10
3595.049581381732
 20
-352.8395313547278
 30
0.0
  0
VERTEX
  5
5F8
  8
0
  6
BYBLOCK
 10
4098.129581381732
 20
-350.5195313547279
 30
0.0
  0
VERTEX
  5
5F9
  8
0
  6
BYBLOCK
 10
4615.709581381732
 20
-348.129531354728
 30
0.0
  0
VERTEX
  5
5FA
  8
0
  6
BYBLOCK
 10
4868.769581381733
 20
-346.454531354728
 30
0.0
  0
VERTEX
  5
5FB
  8
0
  6
BYBLOCK
 10
4943.184581381733
 20
-342.464531354728
 30
0.0
  0
VERTEX
  5
5FC
  8
0
  6
BYBLOCK
 10
4990.639581381733
 20
-338.5095313547281
 30
0.0
  0
VERTEX
  5
5FD
  8
0
  6
BYBLOCK
 10
5016.709581381732
 20
-335.889531354728
 30
0.0
  0
VERTEX
  5
5FE
  8
0
  6
BYBLOCK
 10
5060.349581381733
 20
-331.6795313547279
 30
0.0
  0
VERTEX
  5
5FF
  8
0
  6
BYBLOCK
 10
5128.214581381733
 20
-324.569531354728
 30
0.0
  0
SEQEND
  5
5F4
  8
0
  6
BYBLOCK
  0
POLYLINE
  5
3B9
  8
0
  6
BYBLOCK
 66
     1
 10
0.0
 20
0.0
 30
0.0
 40
9.0
 41
9.0
  0
VERTEX
  5
601
  8
0
  6
BYBLOCK
 10
5008.734546627462
 20
-310.1752110879959
 30
0.0
  0
VERTEX
  5
602
  8
0
  6
BYBLOCK
 10
5081.259581381733
 20
-299.2695313547279
 30
0.0
  0
VERTEX
  5
603
  8
0
  6
BYBLOCK
 10
5140.949581381732
 20
-290.879531354728
 30
0.0
  0
VERTEX
  5
604
  8
0
  6
BYBLOCK
 10
5235.549581381732
 20
-279.9995313547279
 30
0.0
  0
VERTEX
  5
605
  8
0
  6
BYBLOCK
 10
5351.179581381733
 20
-271.619531354728
 30
0.0
  0
VERTEX
  5
606
  8
0
  6
BYBLOCK
 10
5454.579581381733
 20
-266.659531354728
 30
0.0
  0
VERTEX
  5
607
  8
0
  6
BYBLOCK
 10
5724.429581381733
 20
-249.629531354728
 30
0.0
  0
VERTEX
  5
608
  8
0
  6
BYBLOCK
 10
5916.624581381733
 20
-237.3345313547279
 30
0.0
  0
VERTEX
  5
609
  8
0
  6
BYBLOCK
 10
5978.389581381733
 20
-230.8545313547279
 30
0.0
  0
VERTEX
  5
60A
  8
0
  6
BYBLOCK
 10
6068.494581381732
 20
-217.4695313547279
 30
0.0
  0
VERTEX
  5
60B
  8
0
  6
BYBLOCK
 10
6131.329581381731
 20
-207.5495313547281
 30
0.0
  0
VERTEX
  5
60C
  8
0
  6
BYBLOCK
 10
6224.699581381732
 20
-195.3095313547278
 30
0.0
  0
SEQEND
  5
600
  8
0
  6
BYBLOCK
  0
POLYLINE
  5
3BA
  8
0
  6
BYBLOCK
 66
     1
 10
0.0
 20
0.0
 30
0.0
 40
9.0
 41
9.0
  0
VERTEX
  5
60E
  8
0
  6
BYBLOCK
 10
6034.144581381732
 20
-205.119531354728
 30
0.0
  0
VERTEX
  5
60F
  8
0
  6
BYBLOCK
 10
5948.149581381733
 20
-202.294531354728
 30
0.0
  0
VERTEX
  5
610
  8
0
  6
BYBLOCK
 10
5882.459581381732
 20
-200.224531354728
 30
0.0
  0
VERTEX
  5
611
  8
0
  6
BYBLOCK
 10
5812.7716343214
 20
-198.1853556740452
 30
0.0
  0
VERTEX
  5
612
  8
0
  6
BYBLOCK
 10
5731.194581381733
 20
-199.7295313547279
 30
0.0
  0
SEQEND
  5
60D
  8
0
  6
BYBLOCK
  0
POLYLINE
  5
3BB
  8
0
 66
     1
 10
0.0
 20
0.0
 30
0.0
 40
9.0
 41
9.0
  0
VERTEX
  5
614
  8
0
 10
6327.278836763647
 20
-190.269128564114
 30
0.0
  0
VERTEX
  5
615
  8
0
 10
6558.60319619157
 20
-178.3548275863391
 30
0.0
  0
SEQEND
  5
613
  8
0
  0
POLYLINE
  5
3BC
  8
0
 66
     1
 10
0.0
 20
0.0
 30
0.0
 40
9.0
 41
9.0
  0
VERTEX
  5
617
  8
0
 10
6555.929389693903
 20
-145.7593552820069
 30
0.0
  0
VERTEX
  5
618
  8
0
 10
6755.566542061019
 20
-127.9443964068439
 30
0.0
  0
SEQEND
  5
616
  8
0
  0
POLYLINE
  5
3BD
  8
0
 66
     1
 10
0.0
 20
0.0
 30
0.0
 40
9.0
 41
9.0
  0
VERTEX
  5
61A
  8
0
 10
6558.60319619157
 20
-178.3548275863391
 30
0.0
  0
VERTEX
  5
61B
  8
0
 10
6757.311061353925
 20
-152.8834551692132
 30
0.0
  0
SEQEND
  5
619
  8
0
  0
POLYLINE
  5
3BE
  8
0
 66
     1
 10
0.0
 20
0.0
 30
0.0
 70
     1
  0
VERTEX
  5
61D
  8
0
 10
6570.87693954639
 20
-353.8780165594185
 30
0.0
  0
VERTEX
  5
61E
  8
0
 10
6770.389752261734
 20
-339.9267598987278
 30
0.0
  0
VERTEX
  5
61F
  8
0
 10
6742.487238940352
 20
59.09886553195815
 30
0.0
  0
VERTEX
  5
620
  8
0
 10
6542.974426225008
 20
45.14760887126749
 30
0.0
  0
SEQEND
  5
61C
  8
0
  0
TEXT
  5
3BF
  8
0
 10
4059.988112504073
 20
176.0408358389695
 30
0.0
 40
80.0
  1
NRE-100
  7
TEXTSTYLE11
  0
TEXT
  5
3C0
  8
0
 10
4064.951861557061
 20
32.09211330228459
 30
0.0
 40
80.0
  1
GeKau
  7
TEXTSTYLE12
  0
TEXT
  5
3C1
  8
0
 10
2868.688339786687
 20
-141.6391035523334
 30
0.0
 40
80.0
  1
Rosenheim
  7
TEXTSTYLE13
  0
TEXT
  5
3C2
  8
0
 62
     2
 10
2642.217289244059
 20
-43.60505975579872
 30
0.0
 40
20.0
  1
DL 03/13
  7
TEXTSTYLE14
  0
TEXT
  5
3C3
  8
0
 10
6581.709160581733
 20
-237.6100958987279
 30
0.0
 40
25.0
  1
GeKau
  7
TEXTSTYLE23
  0
ENDBLK
  5
41B
  8
0
  0
BLOCK
  8
0
  2
*U1
 70
     1
 10
0.0
 20
0.0
 30
0.0
  3
*U1
  1

  0
SOLID
  5
424
  8
0
 10
2243.011713746741
 20
-230.8129353131362
 30
0.0
 11
2239.745199269622
 21
-230.4696108070339
 31
0.0
 12
2243.011713746741
 22
-199.3908015767759
 32
0.0
 13
2243.011713746741
 23
-199.3908015767759
 33
0.0
  0
SOLID
  5
425
  8
0
 10
2243.011713746741
 20
-230.8129353131362
 30
0.0
 11
2243.011713746741
 21
-199.3908015767759
 31
0.0
 12
2255.284603884752
 22
-232.1028680455931
 32
0.0
 13
2255.284603884752
 23
-232.1028680455931
 33
0.0
  0
SOLID
  5
426
  8
0
 10
-2255.284603884752
 20
-232.1028680455931
 30
0.0
 11
-2243.011713746741
 21
-199.3908015767759
 31
0.0
 12
-2255.284603884752
 22
-200.6807343092328
 32
0.0
 13
-2255.284603884752
 23
-200.6807343092328
 33
0.0
210
0.0
220
0.0
230
-1.0
  0
SOLID
  5
427
  8
0
 10
-2255.284603884752
 20
-232.1028680455931
 30
0.0
 11
-2255.284603884752
 21
-200.6807343092328
 31
0.0
 12
-2258.551118361871
 22
-201.0240588153351
 32
0.0
 13
-2258.551118361871
 23
-201.0240588153351
 33
0.0
210
0.0
220
0.0
230
-1.0
  0
ENDBLK
  5
429
  8
0
  0
BLOCK
  8
0
  2
*U2
 70
     1
 10
0.0
 20
0.0
 30
0.0
  3
*U2
  1

  0
SOLID
  5
42B
  8
0
 10
2200.122957008985
 20
-204.9380943939875
 30
0.0
 11
2199.077672376307
 21
-204.8282305520347
 31
0.0
 12
2200.122957008985
 22
-194.8830115983521
 32
0.0
 13
2200.122957008985
 23
-194.8830115983521
 33
0.0
  0
SOLID
  5
42C
  8
0
 10
2200.122957008985
 20
-204.9380943939875
 30
0.0
 11
2200.122957008985
 21
-194.8830115983521
 31
0.0
 12
2227.04860068354
 22
-207.7680935814415
 32
0.0
 13
2227.04860068354
 23
-207.7680935814415
 33
0.0
  0
SOLID
  5
42D
  8
0
 10
2227.04860068354
 20
-207.7680935814415
 30
0.0
 11
2200.122957008985
 21
-194.8830115983521
 31
0.0
 12
2227.04860068354
 22
-197.7130107858062
 32
0.0
 13
2227.04860068354
 23
-197.7130107858062
 33
0.0
  0
SOLID
  5
42E
  8
0
 10
-2227.04860068354
 20
-207.7680935814415
 30
0.0
 11
-2227.04860068354
 21
-197.7130107858062
 31
0.0
 12
-2228.093885316217
 22
-197.8228746277589
 32
0.0
 13
-2228.093885316217
 23
-197.8228746277589
 33
0.0
210
0.0
220
0.0
230
-1.0
  0
ENDBLK
  5
430
  8
0
  0
BLOCK
  8
0
  2
*U3
 70
     1
 10
0.0
 20
0.0
 30
0.0
  3
*U3
  1

  0
SOLID
  5
432
  8
0
 10
1928.270492380228
 20
-67.01622359151921
 30
0.0
 11
1925.003977903109
 21
-66.67289908541693
 31
0.0
 12
1928.270492380228
 22
-35.5940898551587
 32
0.0
 13
1928.270492380228
 23
-35.5940898551587
 33
0.0
  0
SOLID
  5
433
  8
0
 10
1928.270492380228
 20
-67.01622359151921
 30
0.0
 11
1928.270492380228
 21
-35.5940898551587
 31
0.0
 12
1940.543382518238
 22
-68.30615632397621
 32
0.0
 13
1940.543382518238
 23
-68.30615632397621
 33
0.0
  0
SOLID
  5
434
  8
0
 10
-1940.543382518238
 20
-68.30615632397621
 30
0.0
 11
-1928.270492380228
 21
-35.5940898551587
 31
0.0
 12
-1940.543382518238
 22
-36.88402258761571
 32
0.0
 13
-1940.543382518238
 23
-36.88402258761571
 33
0.0
210
0.0
220
0.0
230
-1.0
  0
SOLID
  5
435
  8
0
 10
-1940.543382518238
 20
-68.30615632397621
 30
0.0
 11
-1940.543382518238
 21
-36.88402258761571
 31
0.0
 12
-1943.809896995357
 22
-37.22734709371798
 32
0.0
 13
-1943.809896995357
 23
-37.22734709371798
 33
0.0
210
0.0
220
0.0
230
-1.0
  0
ENDBLK
  5
437
  8
0
  0
BLOCK
  8
0
  2
*U4
 70
     1
 10
0.0
 20
0.0
 30
0.0
  3
*U4
  1

  0
SOLID
  5
439
  8
0
 10
1885.381735642472
 20
-41.14138267237075
 30
0.0
 11
1884.336451009794
 21
-41.03151883041801
 31
0.0
 12
1885.381735642472
 22
-31.08629987673544
 32
0.0
 13
1885.381735642472
 23
-31.08629987673544
 33
0.0
  0
SOLID
  5
43A
  8
0
 10
1885.381735642472
 20
-41.14138267237075
 30
0.0
 11
1885.381735642472
 21
-31.08629987673544
 31
0.0
 12
1912.307379317026
 22
-43.97138185982476
 32
0.0
 13
1912.307379317026
 23
-43.97138185982476
 33
0.0
  0
SOLID
  5
43B
  8
0
 10
1912.307379317026
 20
-43.97138185982476
 30
0.0
 11
1885.381735642472
 21
-31.08629987673544
 31
0.0
 12
1912.307379317026
 22
-33.91629906418946
 32
0.0
 13
1912.307379317026
 23
-33.91629906418946
 33
0.0
  0
SOLID
  5
43C
  8
0
 10
-1912.307379317026
 20
-43.97138185982476
 30
0.0
 11
-1912.307379317026
 21
-33.91629906418946
 31
0.0
 12
-1913.352663949704
 22
-34.02616290614219
 32
0.0
 13
-1913.352663949704
 23
-34.02616290614219
 33
0.0
210
0.0
220
0.0
230
-1.0
  0
ENDBLK
  5
43E
  8
0
  0
BLOCK
  8
0
  2
*U5
 70
     1
 10
0.0
 20
0.0
 30
0.0
  3
*U5
  1

  0
SOLID
  5
440
  8
0
 10
2487.062334500188
 20
-135.1642631738091
 30
0.0
 11
2483.795820023069
 21
-134.8209386677067
 31
0.0
 12
2487.062334500188
 22
-103.7421294374487
 32
0.0
 13
2487.062334500188
 23
-103.7421294374487
 33
0.0
  0
SOLID
  5
441
  8
0
 10
2487.062334500188
 20
-135.1642631738091
 30
0.0
 11
2487.062334500188
 21
-103.7421294374487
 31
0.0
 12
2499.335224638198
 22
-136.4541959062663
 32
0.0
 13
2499.335224638198
 23
-136.4541959062663
 33
0.0
  0
SOLID
  5
442
  8
0
 10
-2499.335224638198
 20
-136.4541959062663
 30
0.0
 11
-2487.062334500188
 21
-103.7421294374487
 31
0.0
 12
-2499.335224638198
 22
-105.0320621699057
 32
0.0
 13
-2499.335224638198
 23
-105.0320621699057
 33
0.0
210
0.0
220
0.0
230
-1.0
  0
SOLID
  5
443
  8
0
 10
-2499.335224638198
 20
-136.4541959062663
 30
0.0
 11
-2499.335224638198
 21
-105.0320621699057
 31
0.0
 12
-2502.601739115316
 22
-105.375386676008
 32
0.0
 13
-2502.601739115316
 23
-105.375386676008
 33
0.0
210
0.0
220
0.0
230
-1.0
  0
ENDBLK
  5
445
  8
0
  0
BLOCK
  8
0
  2
*U6
 70
     1
 10
0.0
 20
0.0
 30
0.0
  3
*U6
  1

  0
SOLID
  5
447
  8
0
 10
2515.2983377014
 20
-138.1319866972359
 30
0.0
 11
2514.253053068722
 21
-138.0221228552832
 31
0.0
 12
2515.2983377014
 22
-128.0769039016004
 32
0.0
 13
2515.2983377014
 23
-128.0769039016004
 33
0.0
  0
SOLID
  5
448
  8
0
 10
2515.2983377014
 20
-138.1319866972359
 30
0.0
 11
2515.2983377014
 21
-128.0769039016004
 31
0.0
 12
2542.223981375954
 22
-140.9619858846897
 32
0.0
 13
2542.223981375954
 23
-140.9619858846897
 33
0.0
  0
SOLID
  5
449
  8
0
 10
2542.223981375954
 20
-140.9619858846897
 30
0.0
 11
2515.2983377014
 21
-128.0769039016004
 31
0.0
 12
2542.223981375954
 22
-130.9069030890544
 32
0.0
 13
2542.223981375954
 23
-130.9069030890544
 33
0.0
  0
SOLID
  5
44A
  8
0
 10
-2542.223981375954
 20
-140.9619858846897
 30
0.0
 11
-2542.223981375954
 21
-130.9069030890544
 31
0.0
 12
-2543.269266008632
 22
-131.0167669310072
 32
0.0
 13
-2543.269266008632
 23
-131.0167669310072
 33
0.0
210
0.0
220
0.0
230
-1.0
  0
ENDBLK
  5
44C
  8
0
  0
BLOCK
  8
0
  2
*U7
 70
     1
 10
0.0
 20
0.0
 30
0.0
  3
*U7
  1

  0
SOLID
  5
458
  8
0
 10
1346.433914876782
 20
-97.25577917602625
 30
0.0
 11
1345.911272560443
 21
-97.20084725504989
 31
0.0
 12
1346.433914876782
 22
-92.22823777820872
 32
0.0
 13
1346.433914876782
 23
-92.22823777820872
 33
0.0
  0
SOLID
  5
459
  8
0
 10
1346.433914876782
 20
-97.25577917602625
 30
0.0
 11
1346.433914876782
 21
-92.22823777820872
 31
0.0
 12
1350.883882037285
 22
-97.72348957138888
 32
0.0
 13
1350.883882037285
 23
-97.72348957138888
 33
0.0
  0
SOLID
  5
45A
  8
0
 10
-1350.883882037285
 20
-97.72348957138888
 30
0.0
 11
-1346.433914876782
 21
-92.22823777820872
 31
0.0
 12
-1350.883882037285
 22
-92.6959481735714
 32
0.0
 13
-1350.883882037285
 23
-92.6959481735714
 33
0.0
210
0.0
220
0.0
230
-1.0
  0
SOLID
  5
45B
  8
0
 10
-1350.883882037285
 20
-97.72348957138888
 30
0.0
 11
-1350.883882037285
 21
-92.6959481735714
 31
0.0
 12
-1351.406524353623
 22
-92.75088009454771
 32
0.0
 13
-1351.406524353623
 23
-92.75088009454771
 33
0.0
210
0.0
220
0.0
230
-1.0
  0
ENDBLK
  5
45D
  8
0
  0
BLOCK
  8
0
  2
*U8
 70
     1
 10
0.0
 20
0.0
 30
0.0
  3
*U8
  1

  0
SOLID
  5
45F
  8
0
 10
1460.297993973849
 20
-24.47434516583652
 30
0.0
 11
1459.775351657509
 21
-24.41941324486015
 31
0.0
 12
1460.297993973849
 22
-19.44680376801898
 32
0.0
 13
1460.297993973849
 23
-19.44680376801898
 33
0.0
  0
SOLID
  5
460
  8
0
 10
1460.297993973849
 20
-24.47434516583652
 30
0.0
 11
1460.297993973849
 21
-19.44680376801898
 31
0.0
 12
1464.747961134351
 22
-24.94205556119869
 32
0.0
 13
1464.747961134351
 23
-24.94205556119869
 33
0.0
  0
SOLID
  5
461
  8
0
 10
-1464.747961134351
 20
-24.94205556119869
 30
0.0
 11
-1460.297993973849
 21
-19.44680376801898
 31
0.0
 12
-1464.747961134351
 22
-19.91451416338099
 32
0.0
 13
-1464.747961134351
 23
-19.91451416338099
 33
0.0
210
0.0
220
0.0
230
-1.0
  0
SOLID
  5
462
  8
0
 10
-1464.747961134351
 20
-24.94205556119869
 30
0.0
 11
-1464.747961134351
 21
-19.91451416338099
 31
0.0
 12
-1465.27060345069
 22
-19.96944608435729
 32
0.0
 13
-1465.27060345069
 23
-19.96944608435729
 33
0.0
210
0.0
220
0.0
230
-1.0
  0
ENDBLK
  5
464
  8
0
  0
ENDSEC
  0
SECTION
  2
ENTITIES
  0
INSERT
  5
3C6
  8
0
  2
NRE-100
 10
-3788.630439678145
 20
1682.095088539071
 30
0.0
  0
VIEWPORT
  5
1E2
 67
     1
  8
0
 10
128.5
 20
97.5
 30
0.0
 40
314.226
 41
222.18
 68
     1
 69
     1
1001
ACAD
1000
MVIEW
1002
{
1070
    16
1010
0.0
1020
0.0
1030
0.0
1020
0.0
1030
0.0
1010
0.0
1020
0.0
1030
1.0
1020
0.0
1030
1.0
1040
0.0
1040
222.18
1040
128.5
1040
97.5
1040
50.0
1040
0.0
1040
0.0
1070
     0
1070
   100
1070
     0
1070
     3
1070
     0
1070
     0
1070
     0
1070
     0
1040
0.0
1040
0.0
1040
0.0
1040
10.0
1040
10.0
1040
10.0
1040
10.0
1070
     0
1002
{
1002
}
1002
}
  0
ENDSEC
  0
EOF
