  0
SECTION
  2
HEADER
  9
$ACADVER
  1
AC1009
  9
$DWGCODEPAGE
  3
ansi_1252
  9
$INSBASE
 10
0.0
 20
0.0
 30
0.0
  9
$EXTMIN
 10
-0.0700359860294833
 20
-288.1634903542325
 30
0.0
  9
$EXTMAX
 10
2800.0
 20
200.0
 30
0.0
  9
$LIMMIN
 10
0.0
 20
0.0
  9
$LIMMAX
 10
420.0
 20
297.0
  9
$ORTHOMODE
 70
     0
  9
$REGENMODE
 70
     1
  9
$FILLMODE
 70
     1
  9
$QTEXTMODE
 70
     0
  9
$MIRRTEXT
 70
     0
  9
$DRAGMODE
 70
     2
  9
$LTSCALE
 40
1.0
  9
$OSMODE
 70
    37
  9
$ATTMODE
 70
     1
  9
$TEXTSIZE
 40
40.0
  9
$TRACEWID
 40
1.0
  9
$TEXTSTYLE
  7
STANDARD
  9
$CLAYER
  8
0
  9
$CELTYPE
  6
BYLAYER
  9
$CECOLOR
 62
   256
  9
$DIMSCALE
 40
1.0
  9
$DIMASZ
 40
2.5
  9
$DIMEXO
 40
0.625
  9
$DIMDLI
 40
3.75
  9
$DIMRND
 40
0.0
  9
$DIMDLE
 40
0.0
  9
$DIMEXE
 40
1.25
  9
$DIMTP
 40
0.0
  9
$DIMTM
 40
0.0
  9
$DIMTXT
 40
2.5
  9
$DIMCEN
 40
2.5
  9
$DIMTSZ
 40
0.0
  9
$DIMTOL
 70
     0
  9
$DIMLIM
 70
     0
  9
$DIMTIH
 70
     0
  9
$DIMTOH
 70
     0
  9
$DIMSE1
 70
     0
  9
$DIMSE2
 70
     0
  9
$DIMTAD
 70
     1
  9
$DIMZIN
 70
     8
  9
$DIMBLK
  1

  9
$DIMASO
 70
     1
  9
$DIMSHO
 70
     1
  9
$DIMPOST
  1

  9
$DIMAPOST
  1

  9
$DIMALT
 70
     0
  9
$DIMALTD
 70
     3
  9
$DIMALTF
 40
0.03937007874016
  9
$DIMLFAC
 40
1.0
  9
$DIMTOFL
 70
     1
  9
$DIMTVP
 40
0.0
  9
$DIMTIX
 70
     0
  9
$DIMSOXD
 70
     0
  9
$DIMSAH
 70
     0
  9
$DIMBLK1
  1

  9
$DIMBLK2
  1

  9
$DIMSTYLE
  2
ISO-25
  9
$DIMCLRD
 70
     0
  9
$DIMCLRE
 70
     0
  9
$DIMCLRT
 70
     0
  9
$DIMTFAC
 40
1.0
  9
$DIMGAP
 40
0.625
  9
$LUNITS
 70
     2
  9
$LUPREC
 70
     4
  9
$SKETCHINC
 40
1.0
  9
$FILLETRAD
 40
0.0
  9
$AUNITS
 70
     0
  9
$AUPREC
 70
     0
  9
$MENU
  1
.
  9
$ELEVATION
 40
0.0
  9
$PELEVATION
 40
0.0
  9
$THICKNESS
 40
0.0
  9
$LIMCHECK
 70
     0
  9
$CHAMFERA
 40
0.0
  9
$CHAMFERB
 40
0.0
  9
$SKPOLY
 70
     0
  9
$TDCREATE
 40
2453353.758792488
  9
$TDUPDATE
 40
2456372.113457778
  9
$TDINDWG
 40
9791572.06217926
  9
$TDUSRTIMER
 40
9791572.06217926
  9
$USRTIMER
 70
     1
  9
$ANGBASE
 50
0.0
  9
$ANGDIR
 70
     0
  9
$PDMODE
 70
     0
  9
$PDSIZE
 40
0.0
  9
$PLINEWID
 40
9.0
  9
$COORDS
 70
     1
  9
$SPLFRAME
 70
     0
  9
$SPLINETYPE
 70
     6
  9
$SPLINESEGS
 70
     8
  9
$ATTDIA
 70
     0
  9
$ATTREQ
 70
     1
  9
$HANDLING
 70
     1
  9
$HANDSEED
  5
1AE
  9
$SURFTAB1
 70
     6
  9
$SURFTAB2
 70
     6
  9
$SURFTYPE
 70
     6
  9
$SURFU
 70
     6
  9
$SURFV
 70
     6
  9
$UCSNAME
  2

  9
$UCSORG
 10
0.0
 20
0.0
 30
0.0
  9
$UCSXDIR
 10
1.0
 20
0.0
 30
0.0
  9
$UCSYDIR
 10
0.0
 20
1.0
 30
0.0
  9
$PUCSNAME
  2

  9
$PUCSORG
 10
0.0
 20
0.0
 30
0.0
  9
$PUCSXDIR
 10
1.0
 20
0.0
 30
0.0
  9
$PUCSYDIR
 10
0.0
 20
1.0
 30
0.0
  9
$USERI1
 70
     0
  9
$USERI2
 70
     0
  9
$USERI3
 70
     0
  9
$USERI4
 70
     0
  9
$USERI5
 70
     0
  9
$USERR1
 40
0.0
  9
$USERR2
 40
0.0
  9
$USERR3
 40
0.0
  9
$USERR4
 40
0.0
  9
$USERR5
 40
0.0
  9
$WORLDVIEW
 70
     1
  9
$SHADEDGE
 70
     3
  9
$SHADEDIF
 70
    70
  9
$TILEMODE
 70
     1
  9
$MAXACTVP
 70
    64
  9
$PLIMCHECK
 70
     0
  9
$PEXTMIN
 10
1.000000000000000E+20
 20
1.000000000000000E+20
 30
1.000000000000000E+20
  9
$PEXTMAX
 10
-1.000000000000000E+20
 20
-1.000000000000000E+20
 30
-1.000000000000000E+20
  9
$PLIMMIN
 10
0.0
 20
0.0
  9
$PLIMMAX
 10
420.0
 20
297.0
  9
$UNITMODE
 70
     0
  9
$VISRETAIN
 70
     1
  9
$PLINEGEN
 70
     0
  9
$PSLTSCALE
 70
     1
  0
ENDSEC
  0
SECTION
  2
TABLES
  0
TABLE
  2
VPORT
 70
     1
  0
VPORT
  2
*ACTIVE
 70
     0
 10
0.0
 20
0.0
 11
1.0
 21
1.0
 12
1516.690116966941
 22
-181.3350867878872
 13
0.0
 23
0.0
 14
10.0
 24
10.0
 15
10.0
 25
10.0
 16
0.0
 26
0.0
 36
1.0
 17
0.0
 27
0.0
 37
0.0
 40
1787.308742325095
 41
1.664827586206897
 42
50.0
 43
0.0
 44
0.0
 50
0.0
 51
0.0
 71
    16
 72
  1000
 73
     1
 74
     3
 75
     0
 76
     0
 77
     0
 78
     0
  0
ENDTAB
  0
TABLE
  2
LTYPE
 70
     1
  0
LTYPE
  2
CONTINUOUS
 70
     0
  3
Solid line
 72
    65
 73
     0
 40
0.0
  0
ENDTAB
  0
TABLE
  2
LAYER
 70
     1
  0
LAYER
  2
0
 70
     0
 62
     7
  6
CONTINUOUS
  0
ENDTAB
  0
TABLE
  2
STYLE
 70
     1
  0
STYLE
  2
STANDARD
 70
     0
 40
0.0
 41
1.0
 50
0.0
 71
     0
 42
2.5
  3
txt
  4

  0
ENDTAB
  0
TABLE
  2
VIEW
 70
     0
  0
ENDTAB
  0
TABLE
  2
UCS
 70
     0
  0
ENDTAB
  0
TABLE
  2
APPID
 70
     1
  0
APPID
  2
ACAD
 70
     0
  0
ENDTAB
  0
TABLE
  2
DIMSTYLE
 70
     2
  0
DIMSTYLE
  2
STANDARD
 70
     0
  3

  4

  5

  6

  7

 40
1.0
 41
0.18
 42
0.0625
 43
0.38
 44
0.18
 45
0.0
 46
0.0
 47
0.0
 48
0.0
140
0.18
141
0.09
142
0.0
143
25.4
144
1.0
145
0.0
146
1.0
147
0.09
 71
     0
 72
     0
 73
     1
 74
     1
 75
     0
 76
     0
 77
     0
 78
     0
170
     0
171
     2
172
     0
173
     0
174
     0
175
     0
176
     0
177
     0
178
     0
  0
DIMSTYLE
  2
ISO-25
 70
     0
  3

  4

  5

  6

  7

 40
1.0
 41
2.5
 42
0.625
 43
3.75
 44
1.25
 45
0.0
 46
0.0
 47
0.0
 48
0.0
140
2.5
141
2.5
142
0.0
143
0.03937007874016
144
1.0
145
0.0
146
1.0
147
0.625
 71
     0
 72
     0
 73
     0
 74
     0
 75
     0
 76
     0
 77
     1
 78
     8
170
     0
171
     3
172
     1
173
     0
174
     0
175
     0
176
     0
177
     0
178
     0
  0
ENDTAB
  0
ENDSEC
  0
SECTION
  2
BLOCKS
  0
BLOCK
  8
0
  2
$MODEL_SPACE
 70
     0
 10
0.0
 20
0.0
 30
0.0
  3
$MODEL_SPACE
  1

  0
ENDBLK
  5
21
  8
0
  0
BLOCK
 67
     1
  8
0
  2
$PAPER_SPACE
 70
     0
 10
0.0
 20
0.0
 30
0.0
  3
$PAPER_SPACE
  1

  0
ENDBLK
  5
76
 67
     1
  8
0
  0
BLOCK
  8
0
  2
NRE-424
 70
     0
 10
0.0
 20
0.0
 30
0.0
  3
NRE-424
  1

  0
POLYLINE
  5
D7
  8
0
 66
     1
 10
0.0
 20
0.0
 30
0.0
 70
     1
  0
VERTEX
  5
109
  8
0
 10
500.0
 20
-288.1634903542325
 30
0.0
  0
VERTEX
  5
10A
  8
0
 10
2300.0
 20
-288.1634903542325
 30
0.0
  0
VERTEX
  5
10B
  8
0
 10
2300.0
 20
111.8365096457675
 30
0.0
  0
VERTEX
  5
10C
  8
0
 10
500.0
 20
111.8365096457675
 30
0.0
  0
SEQEND
  5
108
  8
0
  0
POLYLINE
  5
D8
  8
0
 66
     1
 10
0.0
 20
0.0
 30
0.0
 70
     1
  0
VERTEX
  5
10E
  8
0
 10
2300.0
 20
-288.1634903542325
 30
0.0
  0
VERTEX
  5
10F
  8
0
 10
2800.0
 20
-288.1634903542325
 30
0.0
  0
VERTEX
  5
110
  8
0
 10
2800.0
 20
111.8365096457675
 30
0.0
  0
VERTEX
  5
111
  8
0
 10
2300.0
 20
111.8365096457675
 30
0.0
  0
SEQEND
  5
10D
  8
0
  0
LINE
  5
D9
  8
0
 10
0.0
 20
-200.0
 30
0.0
 11
0.0
 21
200.0
 31
0.0
  0
LINE
  5
DA
  8
0
 10
0.0
 20
200.0
 30
0.0
 11
500.0
 21
111.8365096457675
 31
0.0
  0
LINE
  5
DB
  8
0
 10
0.0
 20
-200.0
 30
0.0
 11
500.0
 21
-288.1634903542325
 31
0.0
  0
POLYLINE
  5
DC
  8
0
 66
     1
 10
0.0
 20
0.0
 30
0.0
 70
     1
  0
VERTEX
  5
113
  8
0
 10
1988.954262413623
 20
-167.7547602098507
 30
0.0
  0
VERTEX
  5
114
  8
0
 10
2187.757330768005
 20
-189.6028725512641
 30
0.0
  0
VERTEX
  5
115
  8
0
 10
2193.219358853357
 20
-139.9021054626686
 30
0.0
  0
VERTEX
  5
116
  8
0
 10
1994.416290498976
 20
-118.0539931212553
 30
0.0
  0
SEQEND
  5
112
  8
0
  0
POLYLINE
  5
DD
  8
0
 66
     1
 10
0.0
 20
0.0
 30
0.0
 70
     1
  0
VERTEX
  5
118
  8
0
 10
1328.238975846957
 20
-47.5424048800721
 30
0.0
  0
VERTEX
  5
119
  8
0
 10
1527.042044201338
 20
-69.39051722148545
 30
0.0
  0
VERTEX
  5
11A
  8
0
 10
1532.504072286692
 20
-19.68975013289003
 30
0.0
  0
VERTEX
  5
11B
  8
0
 10
1333.70100393231
 20
2.158362208523386
 30
0.0
  0
SEQEND
  5
117
  8
0
  0
POLYLINE
  5
DE
  8
0
 66
     1
 10
0.0
 20
0.0
 30
0.0
 40
9.0
 41
9.0
  0
VERTEX
  5
11D
  8
0
 10
2182.295302682651
 20
-239.3036396398595
 30
0.0
  0
VERTEX
  5
11E
  8
0
 10
1261.371264431175
 20
-138.0956853956118
 30
0.0
  0
SEQEND
  5
11C
  8
0
  0
POLYLINE
  5
DF
  8
0
 66
     1
 10
0.0
 20
0.0
 30
0.0
 40
9.0
 41
9.0
  0
VERTEX
  5
120
  8
0
 10
1107.203131730786
 20
-96.00235780276549
 30
0.0
  0
VERTEX
  5
121
  8
0
 10
2185.026316725328
 20
-214.4532560955618
 30
0.0
  0
SEQEND
  5
11F
  8
0
  0
POLYLINE
  5
E0
  8
0
 66
     1
 10
0.0
 20
0.0
 30
0.0
 40
9.0
 41
9.0
  0
VERTEX
  5
123
  8
0
 10
953.0349990303973
 20
-53.90903020991914
 30
0.0
  0
VERTEX
  5
124
  8
0
 10
1703.231278314139
 20
-136.354299911111
 30
0.0
  0
SEQEND
  5
122
  8
0
  0
POLYLINE
  5
E1
  8
0
 66
     1
 10
0.0
 20
0.0
 30
0.0
 40
9.0
 41
9.0
  0
VERTEX
  5
126
  8
0
 10
1862.861439099881
 20
-128.746860415362
 30
0.0
  0
VERTEX
  5
127
  8
0
 10
1543.601117528397
 20
-143.9617394068602
 30
0.0
  0
SEQEND
  5
125
  8
0
  0
POLYLINE
  5
E2
  8
0
 66
     1
 10
0.0
 20
0.0
 30
0.0
 40
9.0
 41
9.0
  0
VERTEX
  5
129
  8
0
 10
798.8668663300086
 20
-11.81570261707282
 30
0.0
  0
VERTEX
  5
12A
  8
0
 10
1261.371264431175
 20
-138.0956853956118
 30
0.0
  0
SEQEND
  5
128
  8
0
  0
POLYLINE
  5
E3
  8
0
 66
     1
 10
0.0
 20
0.0
 30
0.0
 40
9.0
 41
9.0
  0
VERTEX
  5
12C
  8
0
 10
1036.707296034086
 20
-63.10447050132348
 30
0.0
  0
VERTEX
  5
12D
  8
0
 10
1196.337456819828
 20
-55.49703100557434
 30
0.0
  0
VERTEX
  5
12E
  8
0
 10
1991.685276456299
 20
-142.904376665553
 30
0.0
  0
SEQEND
  5
12B
  8
0
  0
POLYLINE
  5
E4
  8
0
 66
     1
 10
0.0
 20
0.0
 30
0.0
  0
VERTEX
  5
12F
  8
0
 10
1107.203131730786
 20
-96.00235780276549
 30
0.0
  0
VERTEX
  5
130
  8
0
 10
1082.04021861162
 20
-93.42417092871376
 30
0.0
  0
VERTEX
  5
131
  8
0
 10
1056.854128427819
 20
-91.2030135652825
 30
0.0
  0
VERTEX
  5
132
  8
0
 10
1031.646394604762
 20
-89.31689829774714
 30
0.0
  0
VERTEX
  5
133
  8
0
 10
1006.418550567829
 20
-87.74383771138305
 30
0.0
  0
VERTEX
  5
134
  8
0
 10
981.1721297423999
 20
-86.46184439146572
 30
0.0
  0
VERTEX
  5
135
  8
0
 10
955.908665553854
 20
-85.44893092327052
 30
0.0
  0
VERTEX
  5
136
  8
0
 10
930.6296914275715
 20
-84.68310989207294
 30
0.0
  0
VERTEX
  5
137
  8
0
 10
905.3367407889319
 20
-84.14239388314833
 30
0.0
  0
VERTEX
  5
138
  8
0
 10
880.0313470633149
 20
-83.80479548177219
 30
0.0
  0
VERTEX
  5
139
  8
0
 10
854.7150436761004
 20
-83.64832727321989
 30
0.0
  0
VERTEX
  5
13A
  8
0
 10
829.3893640526679
 20
-83.6510018427669
 30
0.0
  0
VERTEX
  5
13B
  8
0
 10
804.0558416183974
 20
-83.79083177568862
 30
0.0
  0
VERTEX
  5
13C
  8
0
 10
778.7160097986683
 20
-84.04582965726048
 30
0.0
  0
VERTEX
  5
13D
  8
0
 10
753.3714020188608
 20
-84.39400807275791
 30
0.0
  0
VERTEX
  5
13E
  8
0
 10
728.0235517043542
 20
-84.81337960745636
 30
0.0
  0
VERTEX
  5
13F
  8
0
 10
702.6739922805284
 20
-85.28195684663122
 30
0.0
  0
VERTEX
  5
140
  8
0
 10
677.3242571727632
 20
-85.77775237555792
 30
0.0
  0
VERTEX
  5
141
  8
0
 10
651.9758798064383
 20
-86.27877877951191
 30
0.0
  0
VERTEX
  5
142
  8
0
 10
626.6303936069335
 20
-86.7630486437686
 30
0.0
  0
VERTEX
  5
143
  8
0
 10
601.2893319996282
 20
-87.20857455360341
 30
0.0
  0
VERTEX
  5
144
  8
0
 10
575.9542284099025
 20
-87.59336909429179
 30
0.0
  0
VERTEX
  5
145
  8
0
 10
550.626616263136
 20
-87.89544485110915
 30
0.0
  0
VERTEX
  5
146
  8
0
 10
525.3080289847087
 20
-88.09281440933091
 30
0.0
  0
VERTEX
  5
147
  8
0
 10
500.0000001
 20
-88.16349035423252
 30
0.0
  0
SEQEND
  5
148
  8
0
  0
POLYLINE
  5
E5
  8
0
 66
     1
 10
0.0
 20
0.0
 30
0.0
 70
     1
  0
VERTEX
  5
14A
  8
0
 10
97.51419545101641
 20
-94.90776611158233
 30
0.0
  0
VERTEX
  5
14B
  8
0
 10
295.051863570044
 20
-63.62087310353604
 30
0.0
  0
VERTEX
  5
14C
  8
0
 10
287.2301403180326
 20
-14.23645607377915
 30
0.0
  0
VERTEX
  5
14D
  8
0
 10
89.69247219900501
 20
-45.52334908182542
 30
0.0
  0
SEQEND
  5
149
  8
0
  0
POLYLINE
  5
E6
  8
0
 66
     1
 10
0.0
 20
0.0
 30
0.0
  0
VERTEX
  5
14E
  8
0
 10
83.56498041584996
 20
-122.9613386759544
 30
0.0
  0
VERTEX
  5
14F
  8
0
 10
100.7726854530451
 20
-120.2835646886253
 30
0.0
  0
VERTEX
  5
150
  8
0
 10
118.000027414983
 20
-117.6991174335566
 30
0.0
  0
VERTEX
  5
151
  8
0
 10
135.2460331334137
 20
-115.2098301860792
 30
0.0
  0
VERTEX
  5
152
  8
0
 10
152.5097294400875
 20
-112.8175362215246
 30
0.0
  0
VERTEX
  5
153
  8
0
 10
169.7901431667548
 20
-110.5240688152239
 30
0.0
  0
VERTEX
  5
154
  8
0
 10
187.0863011451656
 20
-108.3312612425081
 30
0.0
  0
VERTEX
  5
155
  8
0
 10
204.3972302070704
 20
-106.2409467787087
 30
0.0
  0
VERTEX
  5
156
  8
0
 10
221.7219571842192
 20
-104.2549586991567
 30
0.0
  0
VERTEX
  5
157
  8
0
 10
239.0595089083624
 20
-102.3751302791833
 30
0.0
  0
VERTEX
  5
158
  8
0
 10
256.4089122112503
 20
-100.6032947941198
 30
0.0
  0
VERTEX
  5
159
  8
0
 10
273.7691939246329
 20
-98.94128551929731
 30
0.0
  0
VERTEX
  5
15A
  8
0
 10
291.1393808802607
 20
-97.39093573004705
 30
0.0
  0
VERTEX
  5
15B
  8
0
 10
308.5184999098838
 20
-95.95407870170021
 30
0.0
  0
VERTEX
  5
15C
  8
0
 10
325.9055778452524
 20
-94.63254770958798
 30
0.0
  0
VERTEX
  5
15D
  8
0
 10
343.2996415181169
 20
-93.42817602904158
 30
0.0
  0
VERTEX
  5
15E
  8
0
 10
360.6997177602275
 20
-92.34279693539217
 30
0.0
  0
VERTEX
  5
15F
  8
0
 10
378.1048334033343
 20
-91.37824370397098
 30
0.0
  0
VERTEX
  5
160
  8
0
 10
395.5140152791878
 20
-90.53634961010917
 30
0.0
  0
VERTEX
  5
161
  8
0
 10
412.926290219538
 20
-89.81894792913795
 30
0.0
  0
VERTEX
  5
162
  8
0
 10
430.3406850561353
 20
-89.22787193638852
 30
0.0
  0
VERTEX
  5
163
  8
0
 10
447.7562266207298
 20
-88.76495490719206
 30
0.0
  0
VERTEX
  5
164
  8
0
 10
465.171941745072
 20
-88.43203011687979
 30
0.0
  0
VERTEX
  5
165
  8
0
 10
482.5868572609119
 20
-88.23093084078286
 30
0.0
  0
VERTEX
  5
166
  8
0
 10
499.9999999
 20
-88.16349035423252
 30
0.0
  0
SEQEND
  5
167
  8
0
  0
POLYLINE
  5
E7
  8
0
 66
     1
 10
0.0
 20
0.0
 30
0.0
  0
VERTEX
  5
168
  8
0
 10
0.0
 20
0.0
 30
0.0
  0
VERTEX
  5
169
  8
0
 10
20.87039527525869
 20
0.1612091778937881
 30
0.0
  0
VERTEX
  5
16A
  8
0
 10
41.7311222178412
 20
0.6264128055301486
 30
0.0
  0
VERTEX
  5
16B
  8
0
 10
62.58305976708175
 20
1.367975023841574
 30
0.0
  0
VERTEX
  5
16C
  8
0
 10
83.4270868623145
 20
2.358259973760559
 30
0.0
  0
VERTEX
  5
16D
  8
0
 10
104.2640824428737
 20
3.569631796219596
 30
0.0
  0
VERTEX
  5
16E
  8
0
 10
125.0949254480935
 20
4.974454632151177
 30
0.0
  0
VERTEX
  5
16F
  8
0
 10
145.9204948173082
 20
6.5450926224878
 30
0.0
  0
VERTEX
  5
170
  8
0
 10
166.7416694898518
 20
8.253909908161953
 30
0.0
  0
VERTEX
  5
171
  8
0
 10
187.5593284050587
 20
10.07327063010613
 30
0.0
  0
VERTEX
  5
172
  8
0
 10
208.374350502263
 20
11.97553892925283
 30
0.0
  0
VERTEX
  5
173
  8
0
 10
229.1876147207989
 20
13.93307894653455
 30
0.0
  0
VERTEX
  5
174
  8
0
 10
250.0000000000006
 20
15.91825482288376
 30
0.0
  0
VERTEX
  5
175
  8
0
 10
270.8123852792023
 20
17.90343069923298
 30
0.0
  0
VERTEX
  5
176
  8
0
 10
291.6256494977382
 20
19.86097071651469
 30
0.0
  0
VERTEX
  5
177
  8
0
 10
312.4406715949425
 20
21.7632390156614
 30
0.0
  0
VERTEX
  5
178
  8
0
 10
333.2583305101493
 20
23.58259973760558
 30
0.0
  0
VERTEX
  5
179
  8
0
 10
354.079505182693
 20
25.29141702327973
 30
0.0
  0
VERTEX
  5
17A
  8
0
 10
374.9050745519077
 20
26.86205501361635
 30
0.0
  0
VERTEX
  5
17B
  8
0
 10
395.7359175571276
 20
28.26687784954792
 30
0.0
  0
VERTEX
  5
17C
  8
0
 10
416.5729131376867
 20
29.47824967200696
 30
0.0
  0
VERTEX
  5
17D
  8
0
 10
437.4169402329196
 20
30.46853462192593
 30
0.0
  0
VERTEX
  5
17E
  8
0
 10
458.2688777821601
 20
31.21009684023735
 30
0.0
  0
VERTEX
  5
17F
  8
0
 10
479.1296047247427
 20
31.6753004678737
 30
0.0
  0
VERTEX
  5
180
  8
0
 10
499.9999999000012
 20
31.83650964576748
 30
0.0
  0
SEQEND
  5
181
  8
0
  0
POLYLINE
  5
E8
  8
0
 66
     1
 10
0.0
 20
0.0
 30
0.0
  0
VERTEX
  5
182
  8
0
 10
495.3578200326883
 20
31.82835977312328
 30
0.0
  0
VERTEX
  5
183
  8
0
 10
508.1363164379166
 20
31.74124586052414
 30
0.0
  0
VERTEX
  5
184
  8
0
 10
520.9178993774621
 20
31.48285397453201
 30
0.0
  0
VERTEX
  5
185
  8
0
 10
533.700579349892
 20
31.05600990179147
 30
0.0
  0
VERTEX
  5
186
  8
0
 10
546.4823668537738
 20
30.46353942894712
 30
0.0
  0
VERTEX
  5
187
  8
0
 10
559.2612723876747
 20
29.70826834264354
 30
0.0
  0
VERTEX
  5
188
  8
0
 10
572.0353064501622
 20
28.79302242952532
 30
0.0
  0
VERTEX
  5
189
  8
0
 10
584.8024795398036
 20
27.72062747623707
 30
0.0
  0
VERTEX
  5
18A
  8
0
 10
597.5608021551661
 20
26.49390926942336
 30
0.0
  0
VERTEX
  5
18B
  8
0
 10
610.3082847948174
 20
25.11569359572877
 30
0.0
  0
VERTEX
  5
18C
  8
0
 10
623.0429379573243
 20
23.58880624179792
 30
0.0
  0
VERTEX
  5
18D
  8
0
 10
635.7627721412547
 20
21.91607299427538
 30
0.0
  0
VERTEX
  5
18E
  8
0
 10
648.4657978451756
 20
20.10031963980573
 30
0.0
  0
VERTEX
  5
18F
  8
0
 10
661.1500255676546
 20
18.14437196503358
 30
0.0
  0
VERTEX
  5
190
  8
0
 10
673.8134658072588
 20
16.05105575660352
 30
0.0
  0
VERTEX
  5
191
  8
0
 10
686.4541290625557
 20
13.82319680116012
 30
0.0
  0
VERTEX
  5
192
  8
0
 10
699.0700258321126
 20
11.46362088534799
 30
0.0
  0
VERTEX
  5
193
  8
0
 10
711.6591666144967
 20
8.975153795811711
 30
0.0
  0
VERTEX
  5
194
  8
0
 10
724.2195619082755
 20
6.360621319195872
 30
0.0
  0
VERTEX
  5
195
  8
0
 10
736.7492222120164
 20
3.622849242145064
 30
0.0
  0
VERTEX
  5
196
  8
0
 10
749.2461580242868
 20
0.7646633513038794
 30
0.0
  0
VERTEX
  5
197
  8
0
 10
761.7083798436538
 20
-2.211110566683094
 30
0.0
  0
VERTEX
  5
198
  8
0
 10
774.1338981686849
 20
-5.301646725171262
 30
0.0
  0
VERTEX
  5
199
  8
0
 10
786.5207234979474
 20
-8.504119337516038
 30
0.0
  0
VERTEX
  5
19A
  8
0
 10
798.8668662335397
 20
-11.81570259073342
 30
0.0
  0
SEQEND
  5
19B
  8
0
  0
POLYLINE
  5
E9
  8
0
 66
     1
 10
0.0
 20
0.0
 30
0.0
 70
     1
  0
VERTEX
  5
19D
  8
0
 10
2455.228878250128
 20
88.52376330071968
 30
0.0
  0
VERTEX
  5
19E
  8
0
 10
2557.579345943944
 20
88.52376330071968
 30
0.0
  0
VERTEX
  5
19F
  8
0
 10
2557.579345943944
 20
-220.8537867737698
 30
0.0
  0
VERTEX
  5
1A0
  8
0
 10
2455.228878250128
 20
-220.8537867737698
 30
0.0
  0
SEQEND
  5
19C
  8
0
  0
LINE
  5
EA
  8
0
 10
2665.216520982413
 20
-288.1634903542325
 30
0.0
 11
2665.216520982413
 21
-1.316458675236902
 31
0.0
  0
LINE
  5
EB
  8
0
 10
2665.216520982413
 20
-1.316458675236902
 30
0.0
 11
2800.0
 21
111.8365096457675
 31
0.0
  0
POLYLINE
  5
EC
  8
0
 66
     1
 10
0.0
 20
0.0
 30
0.0
 40
9.0
 41
9.0
  0
VERTEX
  5
1A2
  8
0
 10
0.0
 20
0.0
 30
0.0
 42
0.0240161148529693
  0
VERTEX
  5
1A3
  8
0
 10
250.0000000000006
 20
15.9182548228838
 30
0.0
 42
-0.0239044727778557
  0
VERTEX
  5
1A4
  8
0
 10
495.3578200326883
 20
31.82835977312328
 30
0.0
 42
-42.35508026803024
  0
SEQEND
  5
1A1
  8
0
  0
POLYLINE
  5
ED
  8
0
 66
     1
 10
0.0
 20
0.0
 30
0.0
 40
9.0
 41
9.0
  0
VERTEX
  5
1A6
  8
0
 10
500.0000000000011
 20
31.83650964576748
 30
0.0
 42
-0.0652013678832822
  0
VERTEX
  5
1A7
  8
0
 10
798.8668663300086
 20
-11.81570261707282
 30
0.0
 42
-15.33710154348479
  0
SEQEND
  5
1A5
  8
0
  0
POLYLINE
  5
EE
  8
0
 66
     1
 10
0.0
 20
0.0
 30
0.0
 40
9.0
 41
9.0
  0
VERTEX
  5
1A9
  8
0
 10
500.0
 20
-88.16349035423252
 30
0.0
 42
-0.0209812772513601
  0
VERTEX
  5
1AA
  8
0
 10
1107.203131730786
 20
-96.00235780276549
 30
0.0
 42
-47.66154071650501
  0
SEQEND
  5
1A8
  8
0
  0
POLYLINE
  5
EF
  8
0
 66
     1
 10
0.0
 20
0.0
 30
0.0
 40
9.0
 41
9.0
  0
VERTEX
  5
1AC
  8
0
 10
83.56498041584996
 20
-122.9613386759544
 30
0.0
 42
-0.0392290920958132
  0
VERTEX
  5
1AD
  8
0
 10
500.0
 20
-88.16349035423252
 30
0.0
 42
-25.49128584361794
  0
SEQEND
  5
1AB
  8
0
  0
TEXT
  5
F0
  8
0
 62
     2
 10
557.082148926267
 20
-238.5931681957436
 30
0.0
 40
20.0
  1
DL 03/13
  0
TEXT
  5
F1
  8
0
 10
1925.487072267838
 20
20.75539582909285
 30
0.0
 40
40.0
  1
NRE-424
  0
TEXT
  5
F2
  8
0
 10
1140.616417982149
 20
58.29268799058232
 30
0.0
 40
40.0
  1
2800
  0
TEXT
  5
F3
  8
0
 10
1966.436845534917
 20
-67.96911291624593
 30
0.0
 40
40.0
  1
ChRei
  0
TEXT
  5
F4
  8
0
 10
1017.767098180911
 20
-266.2662571613871
 30
0.0
 40
40.0
  1
Valises sur Mer SNCF
  0
ENDBLK
  5
FE
  8
0
  0
ENDSEC
  0
SECTION
  2
ENTITIES
  0
INSERT
  5
F7
  8
0
  2
NRE-424
 10
0.0
 20
0.0
 30
0.0
  0
ENDSEC
  0
EOF
