  0
SECTION
  2
HEADER
  9
$ACADVER
  1
AC1009
  9
$DWGCODEPAGE
  3
ansi_1252
  9
$INSBASE
 10
0.0
 20
0.0
 30
0.0
  9
$EXTMIN
 10
0.0
 20
-200.0
 30
0.0
  9
$EXTMAX
 10
1563.0
 20
495.0
 30
0.0
  9
$LIMMIN
 10
0.0
 20
0.0
  9
$LIMMAX
 10
420.0
 20
297.0
  9
$ORTHOMODE
 70
     0
  9
$REGENMODE
 70
     1
  9
$FILLMODE
 70
     1
  9
$QTEXTMODE
 70
     0
  9
$MIRRTEXT
 70
     0
  9
$DRAGMODE
 70
     2
  9
$LTSCALE
 40
1.0
  9
$OSMODE
 70
    37
  9
$ATTMODE
 70
     1
  9
$TEXTSIZE
 40
50.0
  9
$TRACEWID
 40
1.0
  9
$TEXTSTYLE
  7
STANDARD
  9
$CLAYER
  8
0
  9
$CELTYPE
  6
BYLAYER
  9
$CECOLOR
 62
   256
  9
$DIMSCALE
 40
1.0
  9
$DIMASZ
 40
2.5
  9
$DIMEXO
 40
0.625
  9
$DIMDLI
 40
3.75
  9
$DIMRND
 40
0.0
  9
$DIMDLE
 40
0.0
  9
$DIMEXE
 40
1.25
  9
$DIMTP
 40
0.0
  9
$DIMTM
 40
0.0
  9
$DIMTXT
 40
50.0
  9
$DIMCEN
 40
2.5
  9
$DIMTSZ
 40
0.0
  9
$DIMTOL
 70
     0
  9
$DIMLIM
 70
     0
  9
$DIMTIH
 70
     0
  9
$DIMTOH
 70
     0
  9
$DIMSE1
 70
     0
  9
$DIMSE2
 70
     0
  9
$DIMTAD
 70
     1
  9
$DIMZIN
 70
     8
  9
$DIMBLK
  1

  9
$DIMASO
 70
     1
  9
$DIMSHO
 70
     1
  9
$DIMPOST
  1

  9
$DIMAPOST
  1

  9
$DIMALT
 70
     0
  9
$DIMALTD
 70
     3
  9
$DIMALTF
 40
0.03937007874016
  9
$DIMLFAC
 40
1.0
  9
$DIMTOFL
 70
     1
  9
$DIMTVP
 40
0.0
  9
$DIMTIX
 70
     0
  9
$DIMSOXD
 70
     0
  9
$DIMSAH
 70
     0
  9
$DIMBLK1
  1

  9
$DIMBLK2
  1

  9
$DIMSTYLE
  2
STANDARD
  9
$DIMCLRD
 70
     0
  9
$DIMCLRE
 70
     0
  9
$DIMCLRT
 70
     0
  9
$DIMTFAC
 40
1.0
  9
$DIMGAP
 40
0.625
  9
$LUNITS
 70
     2
  9
$LUPREC
 70
     4
  9
$SKETCHINC
 40
1.0
  9
$FILLETRAD
 40
0.0
  9
$AUNITS
 70
     0
  9
$AUPREC
 70
     0
  9
$MENU
  1
.
  9
$ELEVATION
 40
0.0
  9
$PELEVATION
 40
0.0
  9
$THICKNESS
 40
0.0
  9
$LIMCHECK
 70
     0
  9
$CHAMFERA
 40
0.0
  9
$CHAMFERB
 40
0.0
  9
$SKPOLY
 70
     0
  9
$TDCREATE
 40
2453353.800459155
  9
$TDUPDATE
 40
2454580.141497778
  9
$TDINDWG
 40
9791572.06217926
  9
$TDUSRTIMER
 40
2440862.049751111
  9
$USRTIMER
 70
     1
  9
$ANGBASE
 50
0.0
  9
$ANGDIR
 70
     0
  9
$PDMODE
 70
     0
  9
$PDSIZE
 40
0.0
  9
$PLINEWID
 40
9.0
  9
$COORDS
 70
     1
  9
$SPLFRAME
 70
     0
  9
$SPLINETYPE
 70
     6
  9
$SPLINESEGS
 70
     8
  9
$ATTDIA
 70
     0
  9
$ATTREQ
 70
     1
  9
$HANDLING
 70
     1
  9
$HANDSEED
  5
101
  9
$SURFTAB1
 70
     6
  9
$SURFTAB2
 70
     6
  9
$SURFTYPE
 70
     6
  9
$SURFU
 70
     6
  9
$SURFV
 70
     6
  9
$UCSNAME
  2

  9
$UCSORG
 10
0.0
 20
0.0
 30
0.0
  9
$UCSXDIR
 10
1.0
 20
0.0
 30
0.0
  9
$UCSYDIR
 10
0.0
 20
1.0
 30
0.0
  9
$PUCSNAME
  2

  9
$PUCSORG
 10
0.0
 20
0.0
 30
0.0
  9
$PUCSXDIR
 10
1.0
 20
0.0
 30
0.0
  9
$PUCSYDIR
 10
0.0
 20
1.0
 30
0.0
  9
$USERI1
 70
     0
  9
$USERI2
 70
     0
  9
$USERI3
 70
     0
  9
$USERI4
 70
     0
  9
$USERI5
 70
     0
  9
$USERR1
 40
0.0
  9
$USERR2
 40
0.0
  9
$USERR3
 40
0.0
  9
$USERR4
 40
0.0
  9
$USERR5
 40
0.0
  9
$WORLDVIEW
 70
     1
  9
$SHADEDGE
 70
     3
  9
$SHADEDIF
 70
    70
  9
$TILEMODE
 70
     1
  9
$MAXACTVP
 70
    64
  9
$PLIMCHECK
 70
     0
  9
$PEXTMIN
 10
0.0
 20
0.0
 30
0.0
  9
$PEXTMAX
 10
0.0
 20
0.0
 30
0.0
  9
$PLIMMIN
 10
0.0
 20
0.0
  9
$PLIMMAX
 10
12.0
 20
9.0
  9
$UNITMODE
 70
     0
  9
$VISRETAIN
 70
     1
  9
$PLINEGEN
 70
     0
  9
$PSLTSCALE
 70
     1
  0
ENDSEC
  0
SECTION
  2
TABLES
  0
TABLE
  2
VPORT
 70
     1
  0
VPORT
  2
*ACTIVE
 70
     0
 10
0.0
 20
0.0
 11
1.0
 21
1.0
 12
973.2668681768637
 22
278.9784713639963
 13
0.0
 23
0.0
 14
0.5
 24
0.5
 15
0.5
 25
0.5
 16
0.0
 26
0.0
 36
1.0
 17
0.0
 27
0.0
 37
0.0
 40
1895.7100358049
 41
1.333333333333333
 42
50.0
 43
0.0
 44
0.0
 50
0.0
 51
0.0
 71
    16
 72
   100
 73
     0
 74
     1
 75
     0
 76
     0
 77
     0
 78
     0
  0
ENDTAB
  0
TABLE
  2
LTYPE
 70
     1
  0
LTYPE
  2
CONTINUOUS
 70
     0
  3
CONTINUOUS
 72
    65
 73
     0
 40
0.0
  0
ENDTAB
  0
TABLE
  2
LAYER
 70
     1
  0
LAYER
  2
0
 70
     0
 62
     7
  6
CONTINUOUS
  0
ENDTAB
  0
TABLE
  2
STYLE
 70
     1
  0
STYLE
  2
STANDARD
 70
     0
 40
0.0
 41
1.0
 50
0.0
 71
     0
 42
2.5
  3
txt
  4

  0
ENDTAB
  0
TABLE
  2
VIEW
 70
     0
  0
ENDTAB
  0
TABLE
  2
UCS
 70
     0
  0
ENDTAB
  0
TABLE
  2
APPID
 70
     1
  0
APPID
  2
ACAD
 70
     0
  0
ENDTAB
  0
TABLE
  2
DIMSTYLE
 70
     1
  0
DIMSTYLE
  2
STANDARD
 70
     0
  3

  4

  5

  6

  7

 40
1.0
 41
0.18
 42
0.0625
 43
0.38
 44
0.18
 45
0.0
 46
0.0
 47
0.0
 48
0.0
140
0.18
141
0.09
142
0.0
143
25.4
144
1.0
145
0.0
146
1.0
147
0.09
 71
     0
 72
     0
 73
     1
 74
     1
 75
     0
 76
     0
 77
     0
 78
     0
170
     0
171
     2
172
     0
173
     0
174
     0
175
     0
176
     0
177
     0
178
     0
  0
ENDTAB
  0
ENDSEC
  0
SECTION
  2
BLOCKS
  0
BLOCK
  8
0
  2
$MODEL_SPACE
 70
     0
 10
0.0
 20
0.0
 30
0.0
  3
$MODEL_SPACE
  1

  0
ENDBLK
  5
21
  8
0
  0
BLOCK
 67
     1
  8
0
  2
$PAPER_SPACE
 70
     0
 10
0.0
 20
0.0
 30
0.0
  3
$PAPER_SPACE
  1

  0
ENDBLK
  5
76
 67
     1
  8
0
  0
BLOCK
  8
0
  2
NRE-039
 70
     0
 10
0.0
 20
0.0
 30
0.0
  3
NRE-039
  1

  0
LINE
  5
CF
  8
0
 62
     0
 10
0.0
 20
200.0
 30
0.0
 11
563.0
 21
200.0
 31
0.0
  0
LINE
  5
D0
  8
0
 62
     0
 10
563.0
 20
200.0
 30
0.0
 11
993.0
 21
200.0
 31
0.0
  0
LINE
  5
D1
  8
0
 62
     0
 10
993.0
 20
200.0
 30
0.0
 11
1283.0
 21
495.0
 31
0.0
  0
LINE
  5
D2
  8
0
 62
     0
 10
1283.0
 20
495.0
 30
0.0
 11
1563.0
 21
210.0
 31
0.0
  0
LINE
  5
D3
  8
0
 62
     0
 10
1563.0
 20
210.0
 30
0.0
 11
1563.0
 21
-200.0
 31
0.0
  0
LINE
  5
D4
  8
0
 62
     0
 10
1563.0
 20
-200.0
 30
0.0
 11
563.0
 21
-200.0
 31
0.0
  0
LINE
  5
D5
  8
0
 62
     0
 10
563.0
 20
-200.0
 30
0.0
 11
0.0
 21
-200.0
 31
0.0
  0
LINE
  5
D6
  8
0
 62
     0
 10
0.0
 20
-200.0
 30
0.0
 11
0.0
 21
200.0
 31
0.0
  0
LINE
  5
D7
  8
0
 62
     0
 10
563.0
 20
-200.0
 30
0.0
 11
563.0
 21
200.0
 31
0.0
  0
POLYLINE
  5
D8
  8
0
 62
     0
 66
     1
 10
0.0
 20
0.0
 30
0.0
 40
9.0
 41
9.0
  0
VERTEX
  5
F4
  8
0
 62
     0
 10
0.0
 20
0.0
 30
0.0
  0
VERTEX
  5
F5
  8
0
 62
     0
 10
163.0
 20
0.0
 30
0.0
  0
VERTEX
  5
F6
  8
0
 62
     0
 10
563.0
 20
0.0
 30
0.0
  0
VERTEX
  5
F7
  8
0
 62
     0
 10
1563.0
 20
0.0
 30
0.0
  0
SEQEND
  5
F3
  8
0
 62
     0
  0
POLYLINE
  5
D9
  8
0
 62
     0
 66
     1
 10
0.0
 20
0.0
 30
0.0
 40
9.0
 41
9.0
  0
VERTEX
  5
F9
  8
0
 62
     0
 10
1423.0
 20
352.5
 30
0.0
  0
VERTEX
  5
FA
  8
0
 62
     0
 10
1283.0
 20
210.0
 30
0.0
  0
VERTEX
  5
FB
  8
0
 62
     0
 10
763.0
 20
24.0
 30
0.0
  0
VERTEX
  5
FC
  8
0
 62
     0
 10
463.0
 20
24.0
 30
0.0
  0
VERTEX
  5
FD
  8
0
 62
     0
 10
100.0
 20
24.0
 30
0.0
  0
SEQEND
  5
F8
  8
0
 62
     0
  0
POLYLINE
  5
DA
  8
0
 62
     0
 66
     1
 10
0.0
 20
0.0
 30
0.0
 40
9.0
 41
9.0
  0
VERTEX
  5
FF
  8
0
 62
     0
 10
163.0
 20
0.0
 30
0.0
  0
VERTEX
  5
100
  8
0
 62
     0
 10
463.0
 20
24.0
 30
0.0
  0
SEQEND
  5
FE
  8
0
 62
     0
  0
TEXT
  5
DB
  8
0
 62
     2
 10
573.4786643683808
 20
165.6553406090452
 30
0.0
 40
25.0
  1
FJ 30.03.2008
  0
TEXT
  5
DC
  8
0
 62
     2
 10
284.8911351928455
 20
165.8359446986524
 30
0.0
 40
25.0
  1
DL 23.04.2008
  0
TEXT
  5
DD
  8
0
 10
958.1651834832364
 20
-174.1158679392556
 30
0.0
 40
50.0
  1
NRE-040
  0
TEXT
  5
DE
  8
0
 10
1005.02248103881
 20
-93.7890721297008
 30
0.0
 40
50.0
  1
HeRei
  0
TEXT
  5
DF
  8
0
 10
124.9964828646835
 20
-173.6981146525982
 30
0.0
 40
50.0
  1
NRE-039
  0
TEXT
  5
E0
  8
0
 10
206.063596920616
 20
-80.2892067358207
 30
0.0
 40
50.0
  1
HeRei
  0
TEXT
  5
E1
  8
0
 10
1105.580601782065
 20
66.06051632101935
 30
0.0
 40
50.0
  1
1500, 45°
  0
ENDBLK
  5
E9
  8
0
  0
ENDSEC
  0
SECTION
  2
ENTITIES
  0
INSERT
  5
E4
  8
0
  2
NRE-039
 10
0.0
 20
0.0
 30
0.0
  0
ENDSEC
  0
EOF
